Difference between revisions of "At The Stake"

From MelvinsWiki
Jump to: navigation, search
(Tablature)
(Tablature)
Line 47: Line 47:
  
 
Intro Riff
 
Intro Riff
    1  +  2    3    4  +    1    2    3    4   
 
E|-------------------------|-------------------------|
 
B|-------------------------|-------------------------|
 
G|-------------------------|-------------------------|
 
D|-2--2--------------2--2--|-------------------------|
 
A|-2--2--Ring--------2--2--|--Ring-------------------|  x4
 
E|-0--0--------------0--0--|-------------------------|
 
  
     1  +  2  +  3  +  4  +    1    2    3    4     
+
  1  +  2    3     4  +    1    2    3    4   
E|-------------------------|-------------------------|
+
E|-------------------------|-------------------------|
B|-------------------------|-------------------------|
+
B|-------------------------|-------------------------|
G|-4/-5--5--5--5-----------|-------------------------|
+
G|-------------------------|-------------------------|
D|-4/-5--5--5--5--0--2--2--|-------------------------|
+
D|-2--2--------------2--2--|-------------------------|
A|-2/-3--3--3--3—-0--2--2--|--Ring + Bend Neck Down--|
+
A|-2--2--Ring--------2--2--|--Ring-------------------|  x4
E|-------------------0--0--|-------------------------|
+
E|-0--0--------------0--0--|-------------------------|
 +
 
 +
  1  +  2  +  3  +  4  +    1    2    3    4     
 +
E|-------------------------|-------------------------|
 +
B|-------------------------|-------------------------|
 +
G|-4/-5--5--5--5-----------|-------------------------|
 +
D|-4/-5--5--5--5--0--2--2--|-------------------------|
 +
A|-2/-3--3--3--3—-0--2--2--|--Ring + Bend Neck Down--|
 +
E|-------------------0--0--|-------------------------|
  
  
 
Main Riff - play 4x without palm mute
 
Main Riff - play 4x without palm mute
    1  +  2  +  3  +  4      1    2    3    4  +   
 
E|-------------------------|-------------------------
 
B|-------------------------|-------------------------
 
G|-------------------------|-------------------------
 
D|-2--2-----2--2--4--5-----|-------------------5-----
 
A|-2--2-----2--2--4--5-Ring...-----------------5-----
 
E|-0--0-----0--0--2--3-----|-------------------3--0--
 
  
    1  +  2  +  3  +  4 +    1    2    3    4    
+
  1  +  2  +  3  +  4       1    2    3    4 +   
E|-------------------------|-------------------------|
+
E|-------------------------|-------------------------
B|-------------------------|-------------------------|
+
B|-------------------------|-------------------------
G|-4/-5--5--5--5-----------|-------------------------|
+
G|-------------------------|-------------------------
D|-4/-5--5--5--5--0--2--2--|-------------------------|
+
D|-2--2-----2--2--4--5-----|-------------------5-----
A|-2/-3--3--3--3—-0--2--2--|--Ring + Bend Neck Down--|
+
A|-2--2-----2--2--4--5-Ring...-----------------5-----
E|-------------------0--0--|-------------------------|
+
E|-0--0-----0--0--2--3-----|-------------------3--0--
  
 +
  1  +  2  +  3  +  4  +    1    2    3    4   
 +
E|-------------------------|-------------------------|
 +
B|-------------------------|-------------------------|
 +
G|-4/-5--5--5--5-----------|-------------------------|
 +
D|-4/-5--5--5--5--0--2--2--|-------------------------|
 +
A|-2/-3--3--3--3—-0--2--2--|--Ring + Bend Neck Down--|
 +
E|-------------------0--0--|-------------------------|
  
This is the main riff also used for the Verse, palm muted.  
+
 
The last time it's played before the bridge
+
This is the main riff also used for the Verse (palm-muted).  
you rest for a bar after the playing the first bar.
+
The last time it's played, rest for 1 bar after the first bar.
  
  
 
Bridge
 
Bridge
E|-------------------------|-------------------------
 
B|-------------------------|-------------------------
 
G|-7—-7--7--7--7--7--7--7--|-7—-7--7--7--7--7--7-----
 
D|-7—-7--7--7--7--7--7--7--|-7—-7--7--7--7--7--7--0--
 
A|-5--5--5--5--5--5--5--5--|-5--5--5--5--5--5--5--0--
 
E|-------------------------|-------------------------
 
  
    1  +  2  +  3  +  4  +    1    2    3    4     
+
E|-------------------------|-------------------------
E|-------------------------|-------------------------|
+
B|-------------------------|-------------------------
B|-------------------------|-------------------------|
+
G|-7—-7--7--7--7--7--7--7--|-7—-7--7--7--7--7--7-----
G|-4/-5--5--5--5--5-----4--|-------------------------|
+
D|-7—-7--7--7--7--7--7--7--|-7—-7--7--7--7--7--7--0--
D|-4/-5--5--5--5--5--0--4--|--Ring-------------------|
+
A|-5--5--5--5--5--5--5--5--|-5--5--5--5--5--5--5--0--
A|-2/-3--3--3--3--3--0--2--|-------------------------|
+
E|-------------------------|-------------------------
E|-------------------------|-------------------------|
+
 
 +
  1  +  2  +  3  +  4  +    1    2    3    4     
 +
E|-------------------------|-------------------------|
 +
B|-------------------------|-------------------------|
 +
G|-4/-5--5--5--5--5-----4--|-------------------------|
 +
D|-4/-5--5--5--5--5--0--4--|--Ring-------------------|
 +
A|-2/-3--3--3--3--3--0--2--|-------------------------|
 +
E|-------------------------|-------------------------|
  
  
 
"Chased know any reason..."
 
"Chased know any reason..."
    1    2  +  3  +  4      1  +  2  +  3    4  + 
 
E|-------------------------|-------------------------|
 
B|-------------------------|-------------------------|
 
G|-------------------------|-------------------------|
 
D|-2--------2--2-----3-----|----3--3--3--3-----3-----|
 
A|-2--------2--2--0--3-----|----3--3--3--3-----3--0--|
 
E|-0--------0--0--0--1-----|----1--1--1--1-----1--0--|
 
  
    1    2  +  3  +  4      1  +  2  +  3 4  +   
+
  1    2  +  3  +  4      1  +  2  +  3     4  +   
E|-------------------------|-------------------------|
+
E|-------------------------|-------------------------|
B|-------------------------|-------------------------|
+
B|-------------------------|-------------------------|
G|-------------------------|-------------------------|
+
G|-------------------------|-------------------------|
D|-4----(4)----4-----5-----|----5--5--5--5--5--5-----|
+
D|-2--------2--2-----3-----|----3--3--3--3-----3-----|
A|-4----(4)----4--0--5-----|----5--5--5--5--5--5--0--|
+
A|-2--------2--2--0--3-----|----3--3--3--3-----3--0--|
E|-2----(2)----2--0--3-----|----3--3--3--3--3--3--0--|
+
E|-0--------0--0--0--1-----|----1--1--1--1-----1--0--|
  
    1    2  +  3  +  4      1  +  2  +  3     4  +  
+
  1    2  +  3  +  4      1  +  2  +  3 4  +
E|-------------------------|-------------------------|
+
E|-------------------------|-------------------------|
B|-------------------------|-------------------------|
+
B|-------------------------|-------------------------|
G|-------------------------|-------------------------|
+
G|-------------------------|-------------------------|
D|-2--------2--2-----3-----|----3--3--3--3-----3-----|
+
D|-4----(4)----4-----5-----|----5--5--5--5--5--5-----|
A|-2--------2--2--0--3-----|----3--3--3--3-----3--0--|
+
A|-4----(4)----4--0--5-----|----5--5--5--5--5--5--0--|
E|-0--------0--0--0--1-----|----1--1--1--1-----1--0--|
+
E|-2----(2)----2--0--3-----|----3--3--3--3--3--3--0--|
  
    1    2     3  +  4      1     2     3    4       1    2    3    4   
+
  1    2 3  +  4      1 2 3    4 +
E|-------------------------|-------------------------|-------------------------|
+
E|-------------------------|-------------------------|
B|-------------------------|-------------------------|-------------------------|
+
B|-------------------------|-------------------------|
G|-------------------------|-------------------------|-------------------------|
+
G|-------------------------|-------------------------|
D|-4----(4)----4-----5-----|-------------------------|-------------------------|
+
D|-2--------2--2-----3-----|----3--3--3--3-----3-----|
A|-4----(4)----4--0--5-----|--Ring.....--------------|--(Ring).....------------|
+
A|-2--------2--2--0--3-----|----3--3--3--3-----3--0--|
E|-2----(2)----2--0--3-----|-------------------------|-------------------------|
+
E|-0--------0--0--0--1-----|----1--1--1--1-----1--0--|
  
 +
  1    2    3  +  4      1    2    3    4      1    2    3    4   
 +
E|-------------------------|-------------------------|-------------------------|
 +
B|-------------------------|-------------------------|-------------------------|
 +
G|-------------------------|-------------------------|-------------------------|
 +
D|-4----(4)----4-----5-----|-------------------------|-------------------------|
 +
A|-4----(4)----4--0--5-----|--Ring.....--------------|--(Ring).....------------|
 +
E|-2----(2)----2--0--3-----|-------------------------|-------------------------|
  
  
 
Then Main Riff returns...
 
Then Main Riff returns...
  
the rest you can figure out by yourself[[Category: Tablature]]
+
the rest you can figure out by yourself  
 +
[[Category: Tablature]]

Revision as of 23:59, 1 November 2009

"At The Stake" (words: Osborne; music: Crover/Deutrom/Osborne) – 7:56

Originally from Stoner Witch, 1994

Lyrics

Maybe once and maybe came away

I took a quarter of your wishes, fed them all aside

The weaker of the fortunes mystery hasn't yet all appeared to me

But then I never wanted more than three


Chased know any reason, flames are all I see

Reality's been forsaken maybe stirin all on a lee


So it seems and so it's came away

Might be the voicings frighten and so it's gotten me

The weaker of the fortune's mystery has finally pissed indee

Indeed, made it for the Eve


Chased know any reason, flames are all I see

Reality's been forsaken maybe stirin all on a lee

Now they're gonna burn me, make all my flesh away

Real green turnin half ball shaken

Leave me for a day


Tablature

(4/4)

Begin by building feedback in the key of E.


Intro Riff

  1  +  2     3     4  +    1     2     3     4     

E|-------------------------|-------------------------| B|-------------------------|-------------------------| G|-------------------------|-------------------------| D|-2--2--------------2--2--|-------------------------| A|-2--2--Ring--------2--2--|--Ring-------------------| x4 E|-0--0--------------0--0--|-------------------------|

  1  +  2  +  3  +  4  +    1     2     3     4     

E|-------------------------|-------------------------| B|-------------------------|-------------------------| G|-4/-5--5--5--5-----------|-------------------------| D|-4/-5--5--5--5--0--2--2--|-------------------------| A|-2/-3--3--3--3—-0--2--2--|--Ring + Bend Neck Down--| E|-------------------0--0--|-------------------------|


Main Riff - play 4x without palm mute

  1  +  2  +  3  +  4       1     2     3     4  +    

E|-------------------------|------------------------- B|-------------------------|------------------------- G|-------------------------|------------------------- D|-2--2-----2--2--4--5-----|-------------------5----- A|-2--2-----2--2--4--5-Ring...-----------------5----- E|-0--0-----0--0--2--3-----|-------------------3--0--

  1  +  2  +  3  +  4  +    1     2     3     4     

E|-------------------------|-------------------------| B|-------------------------|-------------------------| G|-4/-5--5--5--5-----------|-------------------------| D|-4/-5--5--5--5--0--2--2--|-------------------------| A|-2/-3--3--3--3—-0--2--2--|--Ring + Bend Neck Down--| E|-------------------0--0--|-------------------------|


This is the main riff also used for the Verse (palm-muted). The last time it's played, rest for 1 bar after the first bar.


Bridge

E|-------------------------|------------------------- B|-------------------------|------------------------- G|-7—-7--7--7--7--7--7--7--|-7—-7--7--7--7--7--7----- D|-7—-7--7--7--7--7--7--7--|-7—-7--7--7--7--7--7--0-- A|-5--5--5--5--5--5--5--5--|-5--5--5--5--5--5--5--0-- E|-------------------------|-------------------------

  1  +  2  +  3  +  4  +    1     2     3     4     

E|-------------------------|-------------------------| B|-------------------------|-------------------------| G|-4/-5--5--5--5--5-----4--|-------------------------| D|-4/-5--5--5--5--5--0--4--|--Ring-------------------| A|-2/-3--3--3--3--3--0--2--|-------------------------| E|-------------------------|-------------------------|


"Chased know any reason..."

  1     2  +  3  +  4       1  +  2  +  3     4  +  

E|-------------------------|-------------------------| B|-------------------------|-------------------------| G|-------------------------|-------------------------| D|-2--------2--2-----3-----|----3--3--3--3-----3-----| A|-2--------2--2--0--3-----|----3--3--3--3-----3--0--| E|-0--------0--0--0--1-----|----1--1--1--1-----1--0--|

  1     2  +  3  +  4       1  +  2  +  3  +  4  +  

E|-------------------------|-------------------------| B|-------------------------|-------------------------| G|-------------------------|-------------------------| D|-4----(4)----4-----5-----|----5--5--5--5--5--5-----| A|-4----(4)----4--0--5-----|----5--5--5--5--5--5--0--| E|-2----(2)----2--0--3-----|----3--3--3--3--3--3--0--|

  1     2  +  3  +  4       1  +  2  +  3     4  + 

E|-------------------------|-------------------------| B|-------------------------|-------------------------| G|-------------------------|-------------------------| D|-2--------2--2-----3-----|----3--3--3--3-----3-----| A|-2--------2--2--0--3-----|----3--3--3--3-----3--0--| E|-0--------0--0--0--1-----|----1--1--1--1-----1--0--|

  1     2     3  +  4       1     2     3     4       1     2     3     4     

E|-------------------------|-------------------------|-------------------------| B|-------------------------|-------------------------|-------------------------| G|-------------------------|-------------------------|-------------------------| D|-4----(4)----4-----5-----|-------------------------|-------------------------| A|-4----(4)----4--0--5-----|--Ring.....--------------|--(Ring).....------------| E|-2----(2)----2--0--3-----|-------------------------|-------------------------|


Then Main Riff returns...

the rest you can figure out by yourself