Dead Wipe

From MelvinsWiki
Revision as of 20:48, 2 August 2008 by Bathroom creep (talk | contribs)
(diff) ← Older revision | Latest revision (diff) | Newer revision → (diff)
Jump to: navigation, search

"Dead Wipe" (Crover) – 2:47

Originally appeared on the Dale Crover EP, 1992.

Lyrics

Dead wipe dirt across your skin
Don't hex me with that scare
Blame me for the mess that you're in
You're one with the open head


Acrid sound
Jackin' me around.


Didn't ever want to come in this place
With a ragdoll squeeze on me
Dead wipe burdens on my face
Some kid I'll never see

Simple now

Bloated now.

Guitar TAB

Drop D tuning

Intro
 e---------------------------------------------------------------------------------
 b---------------------------------------------------------------------------------
 g--4-4-4-4-4-4-4-4-4-4-5-4-4-4-4--0--4-4-4-4-4-4-4-4-4-4-5-4-4-4-4--0-------------
 d--5-5-5-5-5-5-5-5-5-5-5-5-5-5-5--0--4-4-4-4-4-4-4-4-4-4-4-4-4-4-4--0-------------
 a--------------------------------------------------------------------------------- 
 d---------------------------------------------------------------------------------
    . . . . . . . . . . . . . . .     . . . . . . . . . . . . . . .


 e---------------------------------------------------------------------------------
 b---------------------------------------------------------------------------------
 g--4-4-4-4-4-4-4-4-4-4-5-4-4-4-4--0--4-4-4-4-4-4-4-4--4---------------------------
 d--5-5-5-5-5-5-5-5-5-5-5-5-5-5-5--0--4-4-4-4-4-4-4-4--4---------------------------
 a--------------------------------------------------------------------------------- 
 d---------------------------------------------------------------------------------
    . . . . . . . . . . . . . . .     . . . . . . . .  let ring                 


 e---------------------------------------------------------------------------------
 b---------------------------------------------------------------------------------
 g---------------------------------------------------------------------------------
 d---------------------------------------------------------------------------------
 a------2--------2---2h3---2--0-------2--------0-----------------------------------  x2
 d--5--------5--------------------4--------4---------------------------------------
   (Intro riff is played at the same time)


Verse
 e---------------------------------------------------------------------------------
 b---------------------------------------------------------------------------------
 g--4-4-4-4-4-4-4-4-4-4-5-4-4-4-4--0--4-4-4-4-4-4-4-4-4-4-5-4-4-4-4--0-------------
 d--5-5-5-5-5-5-5-5-5-5-5-5-5-5-5--0--4-4-4-4-4-4-4-4-4-4-4-4-4-4-4--0-------------
 a---------------------------------------------------------------------------------   x2
 d---------------------------------------------------------------------------------
    . . . . . . . . . . . . . . .     . . . . . . . . . . . . . . .

Pre-Chorus
 e---------------------------------------------------------------------------------
 b---------------------------------------------------------------------------------
 g---------------------------------------------------------------------------------
 d--5-5-5--4-4-4--5-5-5-5-5-5-5-5-5-5--0--4-4--2-2--4-4--2-2--4-2------------------
 a--5-5-5--4-4-4--5-5-5-5-5-5-5-5-5-5--0--4-4--2-2--4-4--2-2--4-2------------------  x2
 d--5-5-5--4-4-4--5-5-5-5-5-5-5-5-5-5--0--4-4--2-2--4-4--2-2--4-2------------------
    . . .  . . .  . . . . . . .

Chorus
 e---------------------------------------------------------------------------------
 b---------------------------------------------------------------------------------
 g--4-4-------4-4-------4-----------------------2----2--2-2--2---------------------
 d--4-4--4-4--4-4--4-4--4-4------------4-4-4----2----2--2-2--2---------------------
 a--2-2--0-0--2-2--0-0--2-0----0-0-0---5-5-5----0----0--0-0--0---------------------  x4
 d-----------------------------0-0-0---0-0-0---------------------------------------
                               . . .


 e---------------------------------------------------------------------------------
 b---------------------------------------------------------------------------------
 g---------------------------------------------------------------------------------
 d--5-5-5-5-5-5-5-5-5-5-5-5-5-5-5--------------------------------------------------
 a--3-3-3-3-3-3-3-3-3-3-3-3-3-3-3--0--2--------------------------------------------
 d---------------------------------------------------------------------------------
    . . . . . . . . . . . . . . .     let ring

Verse
 e---------------------------------------------------------------------------------
 b---------------------------------------------------------------------------------
 g--4-4-4-4-4-4-4-4-4-4-5-4-4-4-4--0--4-4-4-4-4-4-4-4-4-4-5-4-4-4-4--0-------------
 d--5-5-5-5-5-5-5-5-5-5-5-5-5-5-5--0--4-4-4-4-4-4-4-4-4-4-4-4-4-4-4--0-------------
 a---------------------------------------------------------------------------------   x2
 d---------------------------------------------------------------------------------
    . . . . . . . . . . . . . . .     . . . . . . . . . . . . . . .

Pre-Chorus
 e---------------------------------------------------------------------------------
 b---------------------------------------------------------------------------------
 g---------------------------------------------------------------------------------
 d--5-5-5--4-4-4--5-5-5-5-5-5-5-5-5-5--0--4-4--2-2--4-4--2-2--4-2------------------
 a--5-5-5--4-4-4--5-5-5-5-5-5-5-5-5-5--0--4-4--2-2--4-4--2-2--4-2------------------  x2
 d--5-5-5--4-4-4--5-5-5-5-5-5-5-5-5-5--0--4-4--2-2--4-4--2-2--4-2------------------
    . . .  . . .  . . . . . . .

Chorus
 e---------------------------------------------------------------------------------
 b---------------------------------------------------------------------------------
 g--4-4-------4-4-------4-----------------------2----2--2-2--2---------------------
 d--4-4--4-4--4-4--4-4--4-4------------4-4-4----2----2--2-2--2---------------------
 a--2-2--0-0--2-2--0-0--2-0----0-0-0---5-5-5----0----0--0-0--0---------------------  x4
 d-----------------------------0-0-0---0-0-0---------------------------------------
                               . . .

 e---------------------------------------------------------------------------------
 b---------------------------------------------------------------------------------
 g--4-4-------4--------------------------------------------------------------------
 d--4-4--4-4--4-4------------------------------------------------------------------
 a--2-2--0-0--2-0--------2---------------------------------------------------------
 d-----------------5--4--2----4----------------------------------------------------
                              let ring


End

I'm not sure about the chorus, but the rest is okay I guess.

by bcreep