Mary Lady Bobby Kins

From MelvinsWiki
Revision as of 05:11, 22 November 2007 by Beberlei (talk | contribs)
(diff) ← Older revision | Latest revision (diff) | Newer revision → (diff)
Jump to: navigation, search

"Mary Lady Bobby Kins" (Osborne) – 3:37

Originally from The Bootlicker, 1999.

Lyrics

Let's begin
Let's all martyr my mother
I forget
You’re the wonder walker.


What is there
This is true our cage misses
And is it mine?
And can it be your mouth?


We all are here
We all are just right near
And in my ear
I hear what you are now.


Albion, Albion, Albion, Albion


Underneath the Magick
Under all the Law
What is this thing I see?
Ordinary, ordinary


Albion, Albion, Albion, Albion


Let me tell the world
How you are
What will your wife remember?
Ordinary, ordinary


Albion, Albion, Albion, Albion


Now that you've opened
All of our dull minds
Let me thank you most repeatedly
Hands, eyes, tongue.


Guitar Tab

tabbed by ben.nield@gmail.com

x = finger mute
/ = slide up
\ = slide down
h = hammer on
p = pull off
~ = vibrato


-*1st Part*-

  Riff 1 
E|---------------------------------|    
B|---------------------------------|
G|---------------------------------|
D|-----4-----4---------4-----4-----|
A|-3-------3-----3p2-2---2-2---0-0-| 8x
E|---------------------------------|

  Fill pt 1
E|---------------------------------|    
B|---------------------------------|
G|-4-3-----3-----3-----3-----3-----|
D|-2-2---2-----2-----2-----2---2---|
A|-----------------------2---------|
E|---------------------------------|

  Fill pt 2
E|-----------------|    
B|-----------------|
G|-----------------|
D|-7-----6-----4---|
A|-5-----5-----2---|
E|-----------------|

Back to Riff 1 4x and Fill pts 1&2
Then repeat Riff 1 and Fill pt 1

  Then
E|-----------------|    
B|-----------------|
G|-----------------|
D|-7-----6-----4---|
A|-5-----5-----2---|
E|-----------------|

E|-----------------|    
B|-----------------|
G|-----------------|
D|-----------------| 
A|-7-7-7-7-7-7-7-7-| x4
E|-0-0-0-0-0-0-0-0-|


-*2nd Part*-

  Guitar 1:
E|---------------------------------|    
B|---------------------------------|
G|---------------------------------|
D|-6h7-----------------------------|
A|-------7~~~----------------------| 4x
E|---------------------------------|

  Guitar 2:
E|---------------------------------|    
B|---------------------------------|
G|---------------------------------|
D|-9-x-x-9-x-x-9-x-x-9---x-9-x-9-x-|
A|-7-x-x-7-x-x-7-x-x-7---x-7-x-7-x-| 4x
E|---------------------------------|

E|---------------------------------|    
B|---------------------------------|
G|---------------------------------|
D|---------------------------------|
A|-2---x-2---x-2---x-2---x-2---2---| 
E|-0---x-0---x-0---x-0---x-0---0---|
  |--------Palm Mute all----------|  

E|---------------------------------|    
B|---------------------------------|
G|---------------------------------|
D|---------------------------------|
A|-2-------------x-2---------------| 
E|-0-------------x-0---------------|
   
E|---------------------------------|    
B|---------------------------------|
G|---------------------------------|
D|-9-x-x-7-x-x-6-x-x-7---x-6-x-4-x-|
A|-7-x-x-5-x-x-4-x-x-5---x-4-x-2-x-| 
E|---------------------------------|
   
   1   2   3   4   1   2   3   4     
E|---------------------------------|    
B|---------------------------------|
G|---------------------------------|
D|-9---x---------x-9---------------|
A|-7---x-9---9---x-7---x-9---9-----| 
E|-------7---7---------x-7---7-----|

Repeat sequence 3x

  End on this
E|---------------------------------|    
B|---------------------------------|
G|---------------------------------|
D|-7----let------------------------|
A|-5--------ring-------------------| 
E|---------------------------------|