Plethysmograph

From MelvinsWiki
Revision as of 17:36, 20 November 2007 by Beberlei (talk | contribs)
(diff) ← Older revision | Latest revision (diff) | Newer revision → (diff)
Jump to: navigation, search

Originally from Never Breathe What You Can't See, 2004.

Guitar TAB

By Jared Estes

Intro
Fill          X 2
Chorus(part1)
Chorus(part2)
Main Verse    X 8
Fill
Chorus(part1)
Chorus(part2)
Main Verse    X 8
Fill
Chorus(part1)
Chorus(part2)
Solo
Bridge       X 8
Verse 2      X 8
Fill#2
Main Verse   X 8
Fill
Chorus(part1)X 3
Chorus(part2)X 1
Solo

Intro(lots of fuzzscraped)
E--~~~~~~~~~~~~~~~~~~~~~~~~~~~~~~~~~~~~--
B--~~~~~~~~~~~~~~~~~~~~~~~~~~~~~~~~~~~~--
G--~~~~~~~~~~~~~~~~~~~~~~~~~~~~~~~~~~~~--
D--4~~~~~~~~~~~~~~~~~2~~~~~~~~~~~~~~4~~--
A--4~~~~~~~~~~~~~~~~~2~~~~~~~~~~~~~~4~~--
E--2~~~~~~~~~~~~~~~~~0~~~~~~~~~~~~~~2~~--

Fill
E------------------------------------------
B------------------------------------------
G------------------------------------------
D--4-----------------(12)---
A--4------------------(12)---
E--2-----------------(10)---


Chorus(part1)
E-----------------------     ---------------------
B-----------------------     ---------------------
G-7-9------------------     -11-11-11-10-10-10---
D-7-9--7-7-9-9-10-10--- X3  -11-11-11-10-10-10---
A-5-7--7-7-9-9-10-10---     -9--9--9--8--8--8----
E-------5-5-7-7-8--8----     ---------------------

Chorus(part2)
E-----------------------     ---------------------
B-----------------------     ---------------------
G-7-9------------------     -11-11-11-14-14-14---
D-7-9--7-7-9-9-10-10--- X3  -11-11-11-14-14-14---
A-5-7--7-7-9-9-10-10---     -9--9--9--12-12-12---
E-------5-5-7-7-8--8----     ---------------------

Main Verse
E-------------------------------------------
B-------------------------------------------
G-------------------------------------------
D-4-4-4-4-4-4-4-4-4-4-4-4-4-4-4----4----4---
A-4-4-4-4-4-4-4-4-4-4-4-4-4-4-4----4----4---
E-2-2-2-2-2-2-2-2-2-2-2-2-2-2-2----2----2---
P.M………………………………................

Solo
E--------------------------------------------------
B--7-7-7--7-5-7--12-10----12-12-12-12-12-10-10-7---
G--------------------------------------------------
D--------------------------------------------------
A--------------------------------------------------
E--------------------------------------------------

E--------------------------------------------------
B--7-7-7--7-5-7--12-10----0--3--5--7-10-10--7------
G--------------------------------------------------
D--------------------------------------------------
A--------------------------------------------------
E--------------------------------------------------

Bridge
E-------------------------------------------------------------
B-------------------------------------------------------------
G-------------------------------------------------------------
D--2-2-2-2-2---10-9--2-2-2--9-8--2-2-2--8-7--2-2--10-9-8-7----
A--2-2-2-2-2---10-9--2-2-2--9-8--2-2-2--8-7--2-2--10-9-8-7----
E--0-0-0-0-0---8--7--0-0-0--7-6--0-0-0--6-5--0-0--8--7-6-5----

Verse 2
E------------------------------------------
B------------------------------------------
G------------------------------------------
D-4-4-4-4-4-4--7-7-7--2-2-2-2-2-2--7-7-7---
A-4-4-4-4-4-4--7-7-7--2-2-2-2-2-2--7-7-7---
E-2-2-2-2-2-2--5-5-5--0-0-0-0-0-0--5-5-5---

Fill#2
E-------------------
B-------------------
G-------------------
D----2----3----4----
A----2----3----4----
E----0----1----2----

ROCK THE BAT!
~JARED ESTES~
WeeZaR190@aol.com