Difference between revisions of "A Vast Filthy Prison"

From MelvinsWiki
Jump to navigation Jump to search
Line 86: Line 86:
 
  a--5---5-5--7---2-----------------------------------------------------------------
 
  a--5---5-5--7---2-----------------------------------------------------------------
 
  e--3---3-3--5---0-----------------------------------------------------------------
 
  e--3---3-3--5---0-----------------------------------------------------------------
   i would never come alone...
+
   i would never come along...
  
 
  Verse  x2
 
  Verse  x2

Revision as of 13:36, 19 June 2008

"A Vast Filthy Prison" – 6:44

Originally released on (A) Senile Animal, 2006.

Lyrics

Take care of my princess,
Take her cuz we live alone.
If you weren't so simple,
I would never come along.
Raise your hand to heaven,
Now raise the one thats half alive.
You said you'd give a fortune,
If you could have it everynight.
The world is full of evil,
Now which of those are one of you.
Where is my one true angel,
With her golden wings so open.


Some would call it heaven,
He would call it bravery.
I would call it neither,
I would call it thievery.

Guitar Tab

Intro   x2
e---------------------------------------------------------------------------------
b---------------------------------------------------------------------------------
g---------------------------------------------------------------------------------
d--1---1-1h2---2------------------------------------------------------------------
a--2---2-2-----2------------------------------------------------------------------ 
e--0---0-0-----0------------------------------------------------------------------
e---------------------------------------------------------------------------------
b---------------------------------------------------------------------------------
g---------------------------------------------------------------------------------
d--1---1-1h2---2------------------------------------------------------------------
a--2---2-2-----2------------------------------------------------------------------
e--0---0-0-----0------------------------------------------------------------------
e---------------------------------------------------------------------------------
b---------------------------------------------------------------------------------
g---------------------------------------------------------------------------------
d--5---5-5--7---2-----------------------------------------------------------------
a--5---5-5--7---2-----------------------------------------------------------------
e--3---3-3--5---0-----------------------------------------------------------------
e---------------------------------------------------------------------------------
b---------------------------------------------------------------------------------
g---------------------------------------------------------------------------------
d--5---5-5--7---2-----------------------------------------------------------------
a--5---5-5--7---2-----------------------------------------------------------------
e--3---3-3--5---0-----------------------------------------------------------------
Verse  (like intro, with lyrics)
e---------------------------------------------------------------------------------
b---------------------------------------------------------------------------------
g---------------------------------------------------------------------------------
d--1---1-1h2---2------------------------------------------------------------------
a--2---2-2-----2------------------------------------------------------------------ 
e--0---0-0-----0------------------------------------------------------------------
 take care of my princess....

e---------------------------------------------------------------------------------
b---------------------------------------------------------------------------------
g---------------------------------------------------------------------------------
d--1---1-1h2---2------------------------------------------------------------------
a--2---2-2-----2------------------------------------------------------------------
e--0---0-0-----0------------------------------------------------------------------
  take her cuz we live alone....
e---------------------------------------------------------------------------------
b---------------------------------------------------------------------------------
g---------------------------------------------------------------------------------
d--5---5-5--7---2-----------------------------------------------------------------
a--5---5-5--7---2-----------------------------------------------------------------
e--3---3-3--5---0-----------------------------------------------------------------
    if you weren't so simple....
e---------------------------------------------------------------------------------
b---------------------------------------------------------------------------------
g---------------------------------------------------------------------------------
d--5---5-5--7---2-----------------------------------------------------------------
a--5---5-5--7---2-----------------------------------------------------------------
e--3---3-3--5---0-----------------------------------------------------------------
  i would never come along...
Verse  x2
Riff 1
e---------------------------------------------------------------------------------
b---------------------------------------------------------------------------------
g---------------------------------------------------------------------------------
d--9-9-9-9-9-9-9---7--4-4--4/5--5-5-5-5-5-5-5--2----------------------------------
a--7-7-7-7-7-7-7---5--2-2--2/3--3-3-3-3-3-3-3--0---2-2------2-2-------------------
e--------------------------------------------------0-0------0-0-------------------
   . . . . . .                  . . . . . .                 . .
e---------------------------------------------------------------------------------
b---------------------------------------------------------------------------------
g---------------------------------------------------------------------------------
d--9-9-9-9-9-9\4--4-4--4-4-4--2---------------------------------------------------
a--7-7-7-7-7-7\2--2-2--2-2-2--0---2-----------------------------------------------
e---------------------------------0-----------------------------------------------
   . . . . . .
Intro  x1
play at the same time:
e--------3------------------------------------------------------------------------
b-----3-----5---------------------------------------------------------------------
g--4------------------------------------------------------------------------------
d---------------------------------------------------------------------------------
a---------------------------------------------------------------------------------
e---------------------------------------------------------------------------------
e--------3------------------------------------------------------------------------
b-----3-----5---------------------------------------------------------------------
g--4------------------------------------------------------------------------------
d---------------------------------------------------------------------------------
a---------------------------------------------------------------------------------
e---------------------------------------------------------------------------------
e---------------------------------------------------------------------------------
b--5b---5b-5b--5r--5--------------------------------------------------------------
g---------------------------------------------------------------------------------
d---------------------------------------------------------------------------------
a---------------------------------------------------------------------------------
e---------------------------------------------------------------------------------
e---------------------------------------------------------------------------------
b--5b---5b-5b--5r--5--------------------------------------------------------------
g---------------------------------------------------------------------------------
d---------------------------------------------------------------------------------
a---------------------------------------------------------------------------------
e---------------------------------------------------------------------------------
Verse x1
Riff 1
e---------------------------------------------------------------------------------
b---------------------------------------------------------------------------------
g---------------------------------------------------------------------------------
d--9-9-9-9-9-9-9---7--4-4--4/5--5-5-5-5-5-5-5--2----------------------------------
a--7-7-7-7-7-7-7---5--2-2--2/3--3-3-3-3-3-3-3--0---2-2------2-2-------------------
e--------------------------------------------------0-0------0-0-------------------
   . . . . . .                  . . . . . .                 . .
e---------------------------------------------------------------------------------
b---------------------------------------------------------------------------------
g---------------------------------------------------------------------------------
d--9-9-9-9-9-9\4--4-4--4-4-4--2---------------------------------------------------
a--7-7-7-7-7-7\2--2-2--2-2-2--0---2-----------------------------------------------
e---------------------------------0-----------------------------------------------
   . . . . . .
Riff 1 
e---------------------------------------------------------------------------------
b---------------------------------------------------------------------------------
g---------------------------------------------------------------------------------
d--9-9-9-9-9-9-9---7--4-4--4/5--5-5-5-5-5-5-5--2----------------------------------
a--7-7-7-7-7-7-7---5--2-2--2/3--3-3-3-3-3-3-3--0---2-2------2-2-------------------
e--------------------------------------------------0-0------0-0-------------------
   . . . . . .                  . . . . . .                 . .
e---------------------------------------------------------------------------------
b---------------------------------------------------------------------------------
g---------------------------------------------------------------------------------
d--9-9-9-9-9-9\4--4-4--4-4-4----9--7---10-9---------------------------------------
a--7-7-7-7-7-7\2--2-2--2-2-2----7--5---8--7---------------------------------------
e---------------------------------------------------------------------------------
   . . . . . .
Outro
e---------------------------------------------------------------------------------
b---------------------------------------------------------------------------------
g---------------------------------------------------------------------------------
d---------------------------------------------------------------------------------
a--2-2--2-2--2-2----2-2--2-2--2-2----2-2--2-2--2-2--------------------------------
e--0-0--0-0--0-0----0-0--0-0--0-0----0-0--0-0--0-0--------------------------------
   . .  . .  . .    . .  . .  . .    . .  . .  . .
play a couple of times
end