Difference between revisions of "Billy Fish"

From MelvinsWiki
Jump to navigation Jump to search
 
Line 1: Line 1:
 +
==Guitar Tab==
 +
 +
Drums....
 +
 +
Intro
 +
e---------------------------------------------------------------------------------
 +
b-------------------------------------5--5--x-------------------------------------
 +
g--9--9-x--8---8-8p7--7--9--7--6------5--5--x--4----------------------------------
 +
d--7--7-x--7---7-7----7--7--7--7------5--5--x--5------5--4--0---7-----------------
 +
a--0--0-x--0---0-0----0--0--0--0----------------------5--4--0---7----------------- x2
 +
e---------------------------------------------------------------------------------
 +
 +
 +
e---------------------------------------------------------------------------------
 +
b---------------------------------------------------------------------------------
 +
g---------------------------------------------------5--5-x--5---5-----------------
 +
d--7--7-x---7---7--7--7-----------------------------5--5-x--5---5----5--4---7-----
 +
a--7--7-x---6---6--6--6---5--7--5--4---4--4--4------3--3-x--3---3----5--4---7----- x2
 +
e--5--5-x---5---5--5--5---5--5--5--5---5--5--5--------------3---3----3--2---5-----
 +
 +
 +
Verse (slightly palm muted)
 +
e---------------------------------------------------------------------------------
 +
b---------------------------------------------------------------------------------
 +
g---------------------------------------------------5--5-x--5---5-----------------
 +
d--7--7-x---7---7--7--7-----------------------------5--5-x--5---5----5--4---7-----
 +
a--7--7-x---6---6--6--6---5--7--5--4---4--4--4------3--3-x--3---3----5--4---7----- x2
 +
e--5--5-x---5---5--5--5---5--5--5--5---5--5--5--------------3---3----3--2---5-----
 +
 +
 +
Verse (non-palm muted)
 +
e---------------------------------------------------------------------------------
 +
b---------------------------------------------------------------------------------
 +
g---------------------------------------------------5--5-x--5---5-----------------
 +
d--7--7-x---7---7--7--7-----------------------------5--5-x--5---5----5--4---7-----
 +
a--7--7-x---6---6--6--6---5--7--5--4---4--4--4------3--3-x--3---3----5--4---7----- x2
 +
e--5--5-x---5---5--5--5---5--5--5--5---5--5--5--------------3---3----3--2---5-----
 +
 +
 +
e---------------------------------------------------------------------------------
 +
b---------------------------------------------------------------------------------
 +
g--5--5-5-5---3--3-3-3-3-3-3----3--2----------------------------------------------
 +
d--5--5-5-5---3--3-3-3-3-3-3----3--2----------------------------------------------
 +
a--3--3-3-3---1--1-1-1-1-1-1----1--0---2-2--2-2--2-2------------------------------
 +
e--------------------------------------0-0--0-0--0-0------------------------------
 +
                                        . .  . .  . .
 +
Drums...
 +
 +
Intro Riff
 +
e---------------------------------------------------------------------------------
 +
b-------------------------------------5--5--x-------------------------------------
 +
g--9--9-x--8---8-8p7--7--9--7--6------5--5--x--4----------------------------------
 +
d--7--7-x--7---7-7----7--7--7--7------5--5--x--5------5--4--0---7-----------------
 +
a--0--0-x--0---0-0----0--0--0--0----------------------5--4--0---7----------------- x2
 +
e---------------------------------------------------------------------------------
 +
 +
 +
Verse (non-palm muted)
 +
e---------------------------------------------------------------------------------
 +
b---------------------------------------------------------------------------------
 +
g---------------------------------------------------5--5-x--5---5-----------------
 +
d--7--7-x---7---7--7--7-----------------------------5--5-x--5---5----5--4---7-----
 +
a--7--7-x---6---6--6--6---5--7--5--4---4--4--4------3--3-x--3---3----5--4---7----- x2
 +
e--5--5-x---5---5--5--5---5--5--5--5---5--5--5--------------3---3----3--2---5-----
 +
 +
Break
 +
e---------------------------------------------------------------------------------
 +
b---------------------------------------------------------------------------------
 +
g--5-5-5-5-5-------------8-8-8-8-8------------------------------------------------
 +
d--5-5-5-5-5--5-5-5-5-5--8-8-8-8-8--8-8-8-8-8-------------------------------------
 +
a--3-3-3-3-3--5-5-5-5-5--6-6-6-6-6--8-8-8-8-8-------------------------------------
 +
e-------------3-3-3-3-3-------------6-6-6-6-6-------------------------------------
 +
 +
e---------------------------------------------------------------------------------
 +
b---------------------------------------------------------------------------------
 +
g--2-2-2-2-2--------------9-9--9-9--9-9-------------------------------------------
 +
d--2-2-2-2-2--2-2-2-2-2---7-7--7-7--7-7-------------------------------------------
 +
a--0-0-0-0-0--2-2-2-2-2---0-0--0-0--0-0-------------------------------------------
 +
e-------------0-0-0-0-0-----------------------------------------------------------
 +
 +
Outro Riff
 +
e---------------------------------------------------------------------------------
 +
b---------------------------------------------------------------------------------
 +
g--2-2-2-2-2--2-2-2-2-2---5----------------2-----5--------------------------------
 +
d--2-2-2-2-2--2-2-2-2-2---5----3-3-3-3-3---2--5--5--------------------------------
 +
a--0-0-0-0-0--0-0-0-0-0---3----3-3-3-3-3---0--5--3--------------------------------
 +
e------------------------------1-1-1-1-1------3-----------------------------------
 +
                                                                                                                                                                                                  x4
 +
e---------------------------------------------------------------------------------
 +
b---------------------------------------------------------------------------------
 +
g--5/8-8-8-8-8-8--3----3/6-6-----5-----2------------------------------------------
 +
d--5/8-8-8-8-8-8--3----3/6-6--5--5--5--2------------------------------------------
 +
a--3/6-6-6-6-6-6--1----1/4-4--5--3--5--0------------------------------------------
 +
e-----------------------------3-----3---------------------------------------------
 +
                  ~
 +
 +
End
 +
e---------------------------------------------------------------------------------
 +
b---------------------------------------------------------------------------------
 +
g--2-2-2-2-2--2-2-2-2-2---2-2-2-2-2--2-2-2-2-2---2-2-2-2-2--2-2-2-2-2-------------
 +
d--2-2-2-2-2--2-2-2-2-2---2-2-2-2-2--2-2-2-2-2---2-2-2-2-2--2-2-2-2-2-------------
 +
a--0-0-0-0-0--0-0-0-0-0---0-0-0-0-0--0-0-0-0-0---0-0-0-0-0--0-0-0-0-0-------------
 +
e---------------------------------------------------------------------------------
 +
 +
 +
 +
 
[[Category: Tablature]]
 
[[Category: Tablature]]

Revision as of 12:55, 10 January 2008

Guitar Tab

Drums....

Intro

e---------------------------------------------------------------------------------
b-------------------------------------5--5--x-------------------------------------
g--9--9-x--8---8-8p7--7--9--7--6------5--5--x--4----------------------------------
d--7--7-x--7---7-7----7--7--7--7------5--5--x--5------5--4--0---7-----------------
a--0--0-x--0---0-0----0--0--0--0----------------------5--4--0---7----------------- x2
e---------------------------------------------------------------------------------


e---------------------------------------------------------------------------------
b---------------------------------------------------------------------------------
g---------------------------------------------------5--5-x--5---5-----------------
d--7--7-x---7---7--7--7-----------------------------5--5-x--5---5----5--4---7-----
a--7--7-x---6---6--6--6---5--7--5--4---4--4--4------3--3-x--3---3----5--4---7----- x2
e--5--5-x---5---5--5--5---5--5--5--5---5--5--5--------------3---3----3--2---5-----


Verse (slightly palm muted)

e---------------------------------------------------------------------------------
b---------------------------------------------------------------------------------
g---------------------------------------------------5--5-x--5---5-----------------
d--7--7-x---7---7--7--7-----------------------------5--5-x--5---5----5--4---7-----
a--7--7-x---6---6--6--6---5--7--5--4---4--4--4------3--3-x--3---3----5--4---7----- x2
e--5--5-x---5---5--5--5---5--5--5--5---5--5--5--------------3---3----3--2---5-----


Verse (non-palm muted)

e---------------------------------------------------------------------------------
b---------------------------------------------------------------------------------
g---------------------------------------------------5--5-x--5---5-----------------
d--7--7-x---7---7--7--7-----------------------------5--5-x--5---5----5--4---7-----
a--7--7-x---6---6--6--6---5--7--5--4---4--4--4------3--3-x--3---3----5--4---7----- x2
e--5--5-x---5---5--5--5---5--5--5--5---5--5--5--------------3---3----3--2---5-----


e---------------------------------------------------------------------------------
b---------------------------------------------------------------------------------
g--5--5-5-5---3--3-3-3-3-3-3----3--2----------------------------------------------
d--5--5-5-5---3--3-3-3-3-3-3----3--2----------------------------------------------
a--3--3-3-3---1--1-1-1-1-1-1----1--0---2-2--2-2--2-2------------------------------
e--------------------------------------0-0--0-0--0-0------------------------------
                                       . .  . .  . .

Drums...

Intro Riff

e---------------------------------------------------------------------------------
b-------------------------------------5--5--x-------------------------------------
g--9--9-x--8---8-8p7--7--9--7--6------5--5--x--4----------------------------------
d--7--7-x--7---7-7----7--7--7--7------5--5--x--5------5--4--0---7-----------------
a--0--0-x--0---0-0----0--0--0--0----------------------5--4--0---7----------------- x2
e---------------------------------------------------------------------------------


Verse (non-palm muted)

e---------------------------------------------------------------------------------
b---------------------------------------------------------------------------------
g---------------------------------------------------5--5-x--5---5-----------------
d--7--7-x---7---7--7--7-----------------------------5--5-x--5---5----5--4---7-----
a--7--7-x---6---6--6--6---5--7--5--4---4--4--4------3--3-x--3---3----5--4---7----- x2
e--5--5-x---5---5--5--5---5--5--5--5---5--5--5--------------3---3----3--2---5-----

Break

e---------------------------------------------------------------------------------
b---------------------------------------------------------------------------------
g--5-5-5-5-5-------------8-8-8-8-8------------------------------------------------
d--5-5-5-5-5--5-5-5-5-5--8-8-8-8-8--8-8-8-8-8-------------------------------------
a--3-3-3-3-3--5-5-5-5-5--6-6-6-6-6--8-8-8-8-8-------------------------------------
e-------------3-3-3-3-3-------------6-6-6-6-6-------------------------------------
e---------------------------------------------------------------------------------
b---------------------------------------------------------------------------------
g--2-2-2-2-2--------------9-9--9-9--9-9-------------------------------------------
d--2-2-2-2-2--2-2-2-2-2---7-7--7-7--7-7-------------------------------------------
a--0-0-0-0-0--2-2-2-2-2---0-0--0-0--0-0-------------------------------------------
e-------------0-0-0-0-0-----------------------------------------------------------

Outro Riff

e---------------------------------------------------------------------------------
b---------------------------------------------------------------------------------
g--2-2-2-2-2--2-2-2-2-2---5----------------2-----5--------------------------------
d--2-2-2-2-2--2-2-2-2-2---5----3-3-3-3-3---2--5--5--------------------------------
a--0-0-0-0-0--0-0-0-0-0---3----3-3-3-3-3---0--5--3--------------------------------
e------------------------------1-1-1-1-1------3-----------------------------------
                                                                                                                                                                                                  x4
e---------------------------------------------------------------------------------
b---------------------------------------------------------------------------------
g--5/8-8-8-8-8-8--3----3/6-6-----5-----2------------------------------------------
d--5/8-8-8-8-8-8--3----3/6-6--5--5--5--2------------------------------------------
a--3/6-6-6-6-6-6--1----1/4-4--5--3--5--0------------------------------------------
e-----------------------------3-----3---------------------------------------------
                  ~

End

e---------------------------------------------------------------------------------
b---------------------------------------------------------------------------------
g--2-2-2-2-2--2-2-2-2-2---2-2-2-2-2--2-2-2-2-2---2-2-2-2-2--2-2-2-2-2-------------
d--2-2-2-2-2--2-2-2-2-2---2-2-2-2-2--2-2-2-2-2---2-2-2-2-2--2-2-2-2-2-------------
a--0-0-0-0-0--0-0-0-0-0---0-0-0-0-0--0-0-0-0-0---0-0-0-0-0--0-0-0-0-0------------- 
e---------------------------------------------------------------------------------