Difference between revisions of "Blood Witch"

From MelvinsWiki
Jump to navigation Jump to search
(added guitar tab)
Line 26: Line 26:
 
==Guitar Tab==
 
==Guitar Tab==
  
BLOOD WITCH
+
BLOOD WITCH <br>
 
CHRIS P. BACON
 
CHRIS P. BACON
  

Revision as of 17:41, 17 July 2008

"Blood Witch" – 2:45

Originally released on (A) Senile Animal, 2006.

Lyrics

right in the blood
maybe it's alive
cause it's loaded


worse on their own
bottom of the world
but they mean it


nothing will be worse
we have learned to think
cause it might be


the nows and the knees
how will we breathe?
and they like it


Guitar Tab

BLOOD WITCH
CHRIS P. BACON


0:00-0:26
E-------------------------------------------------------------------------------------
B-------------------------------------------------------------------------------------
G-------------------------------------------------------------------------------------
D---0--0-0-0--0-0-0--0-0---0--0-0-0--0-0-0--0--0-0-0--0-0--0-0-0--0-0-0--0-0-0-10>BEND
A---0--0-0-0--0-0-0--0-0---0--0-0-0--0-0-0--0--0-0-0--0-0--0-0-0--0-0-0--0-0-0-10>BEND
D---0--0-0-0--0-0-0--0-0---0--0-0-0--0-0-0--0--0-0-0--0-0--0-0-0--0-0-0--0-0-0-10>BEND
E--------------------------------------------------------------PAUSE                        
B--------------------------------------------------------------                                  
G--------------------------------------------------------------                                 
D---0--0-0-0--0-0-0--0-0---0--0-0-0--0-0-0--0-                                 
A---0--0-0-0--0-0-0--0-0---0--0-0-0--0-0-0--0-                                 
D---0--0-0-0--0-0-0--0-0---0--0-0-0--0-0-0--0-                                   
---------------------------------
---------------------------------
---------------------------------
-0-0-0--0-0--0-0-0--0-0-0--0-0-0-
-0-0-0--0-0--0-0-0--0-0-0--0-0-0-
-0-0-0--0-0--0-0-0--0-0-0--0-0-0-
                                                                                                      
                                RIGHT BEFORE SINGING COMES IN
E-----------------------------------------------------     
B-----------------------------------------------------     
G-----------------------------------------------------   
D---0--0-0-0--0-0-0--0-0---0--0-0-0--0-0-0--0----6-3-5         
A---0--0-0-0--0-0-0--0-0---0--0-0-0--0-0-0--0----6-3-5         
D---0--0-0-0--0-0-0--0-0---0--0-0-0--0-0-0--0----6-3-5
0:27-1:19 MAIN RIFF
E-----------------------------------------------------------------------------------------
B-----------------------------------------------------------------------------------------
G-----------------------------------------------------------------------------------------
D---0--0-0-0--0-0-0--3-0-5--0--0-0-0--0-0-0--0-3BEND-0-0-0-0-0--0-0-0--0-0-0--0-0-0-0-0-10
A---0--0-0-0--0-0-0--3-0-5--0--0-0-0--0-0-0--0-3BEND-0-0-0-0-0--0-0-0--0-0-0--0-0-0-0-0-10
D---0--0-0-0--0-0-0--3-0-5--0--0-0-0--0-0-0--0-3BEND-0-0-0-0-0--0-0-0--0-0-0--0-0-0-0-0-10
E-----------------------------------------------------     
B-----------------------------------------------------     
G-----------------------------------------------------   
D---0--0-0-0--0-0-0--0-0---0--0-0-0--0-0-0--0----6-3-5         
A---0--0-0-0--0-0-0--0-0---0--0-0-0--0-0-0--0----6-3-5         
D---0--0-0-0--0-0-0--0-0---0--0-0-0--0-0-0--0----6-3-5
AT 1:20 START DOING THIS
E-----------------------------------
B-----------------------------------
G-----------------------------------
D---0--0-0-0--0-0-0--0-0---0--10BEND
A---0--0-0-0--0-0-0--0-0---0--10BEND
D---0--0-0-0--0-0-0--0-0---0--10BEND
BACK TO MAIN RIFF LIKE THIS
E-----------------------------------------------------     
B-----------------------------------------------------     
G-----------------------------------------------------   
D---0--0-0-0--0-0-0--0-0---0--0-0-0--0-0-0--0----6-3-5         
A---0--0-0-0--0-0-0--0-0---0--0-0-0--0-0-0--0----6-3-5         
D---0--0-0-0--0-0-0--0-0---0--0-0-0--0-0-0--0----6-3-5
2:05-2:44 LISTEN TO THE ALBUM FOR CORRECT STRUMMING TO THE END THERE ARE SOME OPEN NOTES
BETWEEN THE 3 AND 5 PART.
E--------------------------------------------------------------------------------------------
B--------------------------------------------------------------------------------------------
G--------------------------------------------------------------------------------------------
D--0-3-5-3-5--------------------------------------------------------------------------O
A--0-3-5-3-5--------------------------------------------------------------------------O
D--0-3-5-3-5-----------5--3--5--3--5--3--5--3----------------------------------O