Difference between revisions of "Dog Island"

From MelvinsWiki
Jump to navigation Jump to search
(added guitar tab)
 
Line 1: Line 1:
From the forthcoming '''''[[Nude With Boots]]''''' album.
+
"Dog Island" - 7:32
 +
 
 +
Originally released on '''''[[Nude With Boots]]''''', 2008.
  
 
==Guitar Tab==
 
==Guitar Tab==

Revision as of 16:32, 16 July 2008

"Dog Island" - 7:32

Originally released on Nude With Boots, 2008.

Guitar Tab

Drop A tuning


Part 1

Intro

e-------------------------------------------------------------------------------------
b-------------------------------------------------------------------------------------
g-------------------------------------------------------------------------------------
d-------------------------------------------------------------------------------------
a--0--------------------------------0-------------------------------------------------
a--0---0-0-0-0-0-0-0-0-0-0-0-0-0-0--0---0-0-0-0-0-0-0-0-0-0-0-0-0-0-------------------
       . . . . . . . . . . . . . .      . . . . . . . . . . . . . .

Verse

e-------------------------------------------------------------------------------------
b-------------------------------------------------------------------------------------
g--^----------------------------------------------------------------------------------
d--2---------------------------------0------------0-----2--4----------7~--------------
a--3--0-------0-------0------0---0---1--0---0--3--1--3--3--5----------0--------------- 
a--3--0--0-0--0--0-0--0--0-0-0-0-0---1--0---0--3--1--3--3--5--------------------------
         . .     . .     . .   .
                                                                                                  
e-------------------------------------------------------------------------------------
b-------------------------------------------------------------------------------------
g-------------------------------------------------------------------------------------
d-------------------------------------------------------------------------------------
a------0------0---0------------0----^--0-----5-6--0-0--0------------------------------ 
a--0-0-0--0-0-0-0-0-0-0-0--5h7------5--0--0--5-6--0-0--0------------------------------
   . .    . .   .   . . .                 .       . . 

3x verse with vocals

e-------------------------------------------------------------------------------------
b-------------------------------------------------------------------------------------
g--10------7--------------------------------------------------------------------------
d--10------7--------------------------------------------------------------------------
a--8-------5------------0-3--0-5--0-3--0-6---0-3--5--3-0------------------------------ 
a-----------------------0-3--0-5--0-3--0-6---0-3--5--3-0------------------------------

3x verse with vocals

e-------------------------------------------------------------------------------------
b-------------------------------------------------------------------------------------
g--10------7--------------------------------------------------------------------------
d--10------7--------------------------------------------------------------------------
a--8-------5------------0-3--0-5--0-3--0-6-------------------------------------------- 
a-----------------------0-3--0-5--0-3--0-6--------------------------------------------


Part 2

e-------------------------------------------------------------------------------------
b-------------------------------------------------------------------------------------
g-------------------------------------------------------------------------------------
d-------------------------------------------------------------------------------------
a--0--3--5--3-0--5-6--------0--------------------------------------------------------- 
a--0--3--5--3-0--5-6--0-0-0-0-0-0-0-0-------------------------------------------------
                      . . .   . . . .
e-------------------------------------------------------------------------------------
b-------------------------------------------------------------------------------------
g-------------------------------------------------------------------------------------
d-------------------------------------------------------------------------------------
a--3--5--3-0--5-6-------3-5----------------------------------------------------------- 
a--3--5--3-0--5-6--0-0--3-5--0-0-0----------------------------------------------------
                   . .       . . .
e-------------------------------------------------------------------------------------
b-------------------------------------------------------------------------------------
g-------------------------------------------------------------------------------------
d-------------------------------------------------------------------------------------
a--3--5--3-0--5-6--------0------------------------------------------------------------ 
a--3--5--3-0--5-6--0-0-0-0-0-0-0-0----------------------------------------------------
                   . . .   . . . .
e-------------------------------------------------------------------------------------
b-------------------------------------------------------------------------------------
g-------------------------------------------------------------------------------------
d-------------------------------------------------------------------------------------
a--3--5--3-0--5-6-------3-5----------------------------------------------------------- 
a--3--5--3-0--5-6--0-0--3-5--0-0-0----------------------------------------------------
                   . .       . . .
e-------------------------------------------------------------------------------------
b-------------------------------------------------------------------------------------
g-------------------------------------------------------------------------------------
d--2--4--2-----4-5--------------------------------------------------------------------
a--3--5--2-4---5-6------0------------------------------------------------------------- 
a--3--5--3-0---5-6--0-0-0-0-0-0-0-----------------------------------------------------
                    . .   . . . .
e-------------------------------------------------------------------------------------
b-------------------------------------------------------------------------------------
g-------------------------------------------------------------------------------------
d--2--4--2-----4-5-------2-4-------0-2-0-2--------------------------------------------
a--3--5--3-4---5-6-------3-5-------1-3-1-3--0----------------------------------------- 
a--3--5--3-0---5-6--0-0--3-5--0-0--1-3-1-3--0-0-0-0-----------------------------------
                    . .       . .             . . .
e-------------------------------------------------------------------------------------
b-------------------------------------------------------------------------------------
g------------------------^------------------------------------------------------------
d--4-5-------2-4---------2------------------------------------------------------------
a--5-6-------3-5---------3--0--------------------------------------------------------- 
a--5-6--0-0--3-5--0-0-0--3--0--0-0-0--------------------------------------------------
        . .       . . .        . . .
e-------------------------------------------------------------------------------------
b-------------------------------------------------------------------------------------
g-------------------------------------------------------------------------------------
d--4-5-------2-4-------0-2-0-2--------------------------------------------------------
a--5-6-------3-5-------1-3-1-3--0----------------------------------------------------- 
a--5-6--0-0--3-5--0-0--1-3-1-3--0-0-0-0-----------------------------------------------
        . .       . .             . . .
e-------------------------------------------------------------------------------------
b-------------------------------------------------------------------------------------
g------------------------^------------------------------------------------------------
d--4-5-------2-4---------2------------------------------------------------------------
a--5-6-------3-5---------3--0--------------------------------------------------------- 
a--5-6--0-0--3-5--0-0-0--3--0---------------------------------------------------------
        . .       . . .     


Part 3

e-------------------------------------------------------------------------------------
b-------------------------------------------------------------------------------------
g-------------------------------------------------------------------------------------
d-------------------------------------------------------------------------------------
a--0-----0------3-0------0------5-0------0------10--9--10-11-12----------------------- 
a--0-0-0-0-0-0--3-0--0-0-0-0-0--5-0--0-0-0-0-0--10--9--10-11-12-----------------------
     . .   . .       . .   . .       . .   . .    

x 2 without vocals
x 4 with vocals
x 2 with solo
x 4 with vocals jared


Solo

e-------------------------------------------------------------------------------------
b------------------^--------^---------------------------------------------------------
g------------------5-----5--5---------------------------------------------------------
d--------7--4h5-----------------7----7-5--7-7-----5-7-5-4--5--4-5-4-5-4-5-4-----------
a--5-4-------------------------------------------------------------------------------- 
a-------------------------------------------------------------------------------------


Part 4

Riff 1

e-------------------------------------------------------------------------------------
b-------------------------------------------------------------------------------------
g-------------------------------------------------------------------------------------
d-------------------------------------------------------------------------------------
a------------------------------------------------------------------------------------- 
a--0--0-0-0-0-0-3--3-3-3-3-3-3-3--6-6-6-6-6-6-6--5--5-5-5-5-5-5-----------------------
      . . . . .    . . . . . . .    . . . . . .     . . . . . .
                                                                     x 2 without vocals
                                                                             
e-------------------------------------------------------------------------------------
b-------------------------------------------------------------------------------------
g-------------------------------------------------------------------------------------
d-------------------------------------------------------------------------------------
a--0-3--0-6--0-1--0-4---0-1-0-3------------------------------------------------------- 
a--0-3--0-6--0-1--0-4---0-1-0-3-------------------------------------------------------


Riff 1 x 2 with vocals

e-------------------------------------------------------------------------------------
b-------------------------------------------------------------------------------------
g-------------------------------------------------------------------------------------
d-------------------------------------------------------------------------------------   x 2
a--0-3--0-6--0-1--0-4---0-1-0-3------------------------------------------------------- 
a--0-3--0-6--0-1--0-4---0-1-0-3-------------------------------------------------------   


end with drums


Somehow I can't seem to make my tabs look good here on the MelvinsWiki.