Halo of Flies

From MelvinsWiki
Revision as of 19:59, 2 July 2009 by Green Honey (talk | contribs) (New page: ==Lyrics == I've got the answers to all of your questions If you've got the money to pay me in gold I will be living in old Monte Carlo And you will be reading the secrets I've sold ...)
(diff) ← Older revision | Latest revision (diff) | Newer revision → (diff)
Jump to navigation Jump to search

Lyrics

I've got the answers to all of your questions

If you've got the money to pay me in gold

I will be living in old Monte Carlo

And you will be reading the secrets I've sold


Daggers and contacts and bright shiny Limo's

I've got a watch that turns into a lifeboat

Glimmering nightgowns and poisonous cobras

Silencer under the heel of my shoe


The elegance of China

They sent her to lie here on her back

But as she deeply moves me

She'd rather shoot me in my tracks


And while a Middle Asian lady

She really came as no surprise

But I still did destroy her

And I will smash Halo of Flies!


I crossed the ocean

Where no one could see

And I put a time-bomb

In your submarine

Goodbye to old friends

The secret's in hand

With a full ream of papers

And fantastic plans

You never will understand


Guitar TAB

Halo of Flies by Alice Cooper
Melvins version (adapted for 1 guitar)

Intro

e|---------------------------------------------------------------
b|--5-6-5-6-5-6-5-6-5-6-5-6-5-6-5-6-5-6-5-6-5-6-5-6-5-6-5-...etc-
g|---------------------------------------------------------------
d|---------------------------------------------------------------
a|---------------------------------------------------------------
E|---------------------------------------------------------------
e|----------------------------------------------------------------
b|xx9-8-9-8-9-8-9-xx12-11-12-11-12-11-12-xx15-14-15-14-15-16-15---
g|----------------------------------------------------------------
d|--------------------------------------------------------------x-
a|--------------------------------------------------------------x-
E|----------------------------------------------------------------
e|-------------------------------------------------
b|-------------------------------------------------
g|-------------------------------------------------
d|-------------------------------------------------
a|-7-7-7-7-7-7-7-7-8-8-8-7-8-8-8-7-8-8-8-7-8-7-5-3-
E|-------------------------------------------------
e|--------------------------------|
b|--------------------------------|
g|--------------------------------|
d|-2-R----------------------------|
a|-2-Ring-------------------------|
E|-0-R----------------------------|


Riff 1 - play 2x

e|---------------------------------------------------------------|
b|---------------------------------------------------------------|
g|---------------------------------------------------------------|
d|-7---7-------7---9---9-----9\--3-3-3-----------3---3---5---6---|
a|-7---7-------7---9---9-----9\--3-3-3-----------3---3---5---6---|
E|-5-0-5-----0-5-0-7-0-7-----7\--1-1-1-----------1-0-1-0-3-0-4-0-|

Riff 2a - play 1x

e|-------------------------------------------------------------|
b|-------------------------------------------------------------|
g|-------------------------------------------------------------|
d|------------------------------------2---3---2-1~-----0---1---|
a|---------------------2---3---0---------------------2---2---2-|
E|-5----0---7---5-0--------------1-----------------------------|

Riff 2a - play 2x

e|-------------------------------------------------------------|
b|-------------------------------------------------------------|
g|-------------------------------------------------------------|
d|-2--------0----------0---2---0------2---3---2-1~-----0---1---|
a|---3-0--------3-2--------------3-------------------2---2---2-|
E|-------------------------------------------------------------|

Riff 3 (pre-verse riff)

e|---------------------------------------------------------------------------------------------------------------------
b|---------------------------------------------------------------------------------------------------------------------
g|---------------------------------------------------------------------------------------7------7----------------------
d|-7------7------7------7------7------7------.-.-.-.-.-.-.-.-3------3------3------3------7------7------.-.-.-.-.-.-.-.-
a|-7--.-.-7--.-.-7--.-.-7--.-.-7--.-.-7--.-.-7-7\6-6\5-5\4-4\3--.-.-3--.-.-3--.-.-3--.-.-5--.-.-5--.-.-5-5\4-4\3-3\2-2\
E|-5--0-0-5--0-0-5--0-0-5--0-0-5--0-0-5--0-0-----------------1--0-0-1--0-0-1--0-0-1--0-0----0-0----0-0-----------------
e|-------------------------------------------------------------------------------------------------------------------
b|-------------------------------------------------------------------------------------------------------------------
g|---------------------------------------------------------------------------------------7------7--------------------
d|-7------7------7------7------7------7------.-.-.-.-.-.-.-.-3------3------3------3------7------7------7------7------
a|-7--.-.-7--.-.-7--.-.-7--.-.-7--.-.-7--.-.-7-7\6-6\5-5\4-4\3--.-.-3--.-.-3--.-.-3--.-.-5--.-.-5--.-.-7--.-.-7--.-.-
E|-5--0-0-5--0-0-5--0-0-5--0-0-5--0-0-5--0-0-----------------1--0-0-1--0-0-1--0-0-1--0-0----0-0----0-0-5--0-0-5--0-0-
e|---------------------------------------------------------|
b|---------------------------------------------------------|
g|-3------3------3------3------7------7--------------------|
d|-3------3------3------3------7------7------7------7------|
a|-3--.-.-3--.-.-3--.-.-3--.-.-5--.-.-5--.-.-7--.-.-7--.-.-|
E|-1--0-0-1--0-0-1--0-0-1--0-0----0-0----0-0-5--0-0-5--0-0-|

Verse Riff - play

e|-----------------------------------------------------------------|-----------------------------------------------------------------
b|-----------------------------------------------------------------|-----------------------------------------------------------------
g|-2---0-------0---------------------------------------------------|-------------0-------2---4-------2---2---2---3-------------------
d|---------2-----------4-------0---5---4---0---2-------2-------2---|-0---2---4-------------------------------------------4-----------
a|-----------------------------------------------------------------|-----------------------------------------------------------------
E|-----------------------------------------------------------------|-----------------------------------------------------------------

Play the Verse again with lyrics: "I've got the answers to all of you questions..."


to be continued...