Hurter

From MelvinsWiki
Jump to navigation Jump to search

"Hurter" (Crover) – 4:22

Originally appeared on the Dale Crover EP, 1992.

Lyrics

I need you to sing with her
Put your head over me
I lose my appetite
Now one can float free


When he comes vilified
Little chant down under him
Now handle look at you
Get back, you're coming in
Friendship, well now it's me
Step back with a voodoo chain
Go back, wrap it up
Try to make one again

Guitar TAB

Drop d tuning

Intro
 e--------------------------------------------------------------------------------
 b--------------------------------------------------------------------------------
 g--------------------------------------------------------------------------------
 d--7---7---7-0--7---7-0--9--9\---0--3--0---4-------------------------------------  x3
 a--5---5---5-0--7---7-0--9--9\---0--3--0---2-------------------------------------
 d--5---5---5-0--7---7-0--9--9\---0--3--0---2-------------------------------------


 e--------------------------------------------------------------------------------
 b--------------------------------------------------------------------------------
 g--------------------------------------------------------------------------------
 d--7---7---7-0--7---7-0--9-------------------------------------------------------                   
 a--5---5---5-0--7---7-0--9-------------------------------------------------------
 d--5---5---5-0--7---7-0--9-------------------------------------------------------

riff 1
 e--------------------------------------------------------------------------------
 b--------------------------------------------------------------------------------
 g--4--4--4-4-4----4---4-----2--2--2-2--------------------------------------------
 d--2--2--2-2-2p0--0---0-----2--2--2-2-2h3--3-------------------------------------  x2
 a---------------------------0--0--0-0-0----0-------------------------------------
 d--------------------------------------------------------------------------------

riff 2
 e--------------------------------------------------------------------------------
 b--------------------------------------------------------------------------------
 g------------------------2--2--2-2-2---------------------------------------------
 d--2--2--2-2-2--0--0-----2--2--2-2-2--3--3----3----------------------------------  x2
 a--2--2--2-2-2--2--2-----0--0--0-0-0--3--3----3----------------------------------
 d--2--2--2-2-2--0--0------------------3--3----3----------------------------------

PM
 e---------------------------------------------------------------------------------
 b---------------------------------------------------------------------------------
 g---------------------------------------------------------------------------------
 d--3-3-3-3-3-3-3-3-3-3-3-3-3-3-3--------------------------------------------------
 a--3-3-3-3-3-3-3-3-3-3-3-3-3-3-3--------------------------------------------------
 d--3-3-3-3-3-3-3-3-3-3-3-3-3-3-3--------------------------------------------------
    . . . . . . . . . . . . . . .

riff 3
 e---------------------------------------------------------------------------------
 b---------------------------------------------------------------------------------
 g---------------------------------------------------------------------------------
 d--3----3-3-3-3/5--5/7--7----0--2-------------------------------------------------
 a---------------------------------------------------------------------------------  x2
 d---------------------------------------------------------------------------------

after that only bass  x1
bass with slight guitar  x4  (just play riff 3 on the low d string... quietly)

PM
 e---------------------------------------------------------------------------------
 b---------------------------------------------------------------------------------
 g---------------------------------------------------------------------------------
 d--2-2-2-2-2-2-2-2-2-2-2-2-2-2-2--------------------------------------------------
 a--2-2-2-2-2-2-2-2-2-2-2-2-2-2-2--------------------------------------------------
 d--2-2-2-2-2-2-2-2-2-2-2-2-2-2-2--------------------------------------------------
    . . . . . . . . . . . . . . .

riff 2
 e--------------------------------------------------------------------------------
 b--------------------------------------------------------------------------------
 g------------------------2--2--2-2-2---------------------------------------------
 d--2--2--2-2-2--0--0-----2--2--2-2-2--3--3----3----------------------------------  x4
 a--2--2--2-2-2--2--2-----0--0--0-0-0--3--3----3----------------------------------
 d--2--2--2-2-2--0--0------------------3--3----3----------------------------------


PM
 e---------------------------------------------------------------------------------
 b---------------------------------------------------------------------------------
 g---------------------------------------------------------------------------------
 d--3-3-3-3-3-3-3-3-3-3-3-3-3-3-3--------------------------------------------------
 a--3-3-3-3-3-3-3-3-3-3-3-3-3-3-3--------------------------------------------------
 d--3-3-3-3-3-3-3-3-3-3-3-3-3-3-3--------------------------------------------------
    . . . . . . . . . . . . . . .


alternate riff 3
 e---------------------------------------------------------------------------------
 b---------------------------------------------------------------------------------
 g---------------------------------------------------------------------------------
 d--5----3-3-3-3/5--5/7--7----0--2-------------------------------------------------
 a--3----3-3-3-3/5--5/7--7----0--2-------------------------------------------------  x2
 d--3----3-3-3-3/5--5/7--7----0--2-------------------------------------------------
         . . .

only bass  x1
only riff 3  x2
bass with slight alternate riff....for a minute or so......fade out....scream