Difference between revisions of "Respite"

From MelvinsWiki
Jump to navigation Jump to search
Line 24: Line 24:
 
I never wanted you
 
I never wanted you
  
[[Category: Lyrics]]
+
 
 +
==Guitar Tab==
 +
 
 +
Intro
 +
e---------------------------------------------------------------------------------
 +
b---------------------------------------------------------------------------------
 +
g---------------------------------------------------------------------------------
 +
d--3--3--3--3--3-3--2-3--3--3--3--3--3-3------------------------------------------
 +
a---------------------------------------------------------------------------------
 +
e---------------------------------------------------------------------------------
 +
 +
e---------------------------------------------------------------------------------
 +
b---------------------------------------------------------------------------------
 +
g--4------------------------------------------------------------------------------
 +
d------2------------2-2-2---------------------------------------------------------
 +
a------2----2---2---3-3-3--------------------------------------------------------- x2
 +
e-----------0---0---0-0-0---------------------------------------------------------
 +
 +
drums fade in...
 +
e---------------------------------------------------------------------------------
 +
b---------------------------------------------------------------------------------
 +
g---------------------------------------------------------------------------------
 +
d--2-3--3--3--3--3-3--2-3--3--3--3--3--3-3----------------------------------------
 +
a---------------------------------------------------------------------------------
 +
e---------------------------------------------------------------------------------
 +
 +
e---------------------------------------------------------------------------------
 +
b---------------------------------------------------------------------------------
 +
g--4------------------------------------------------------------------------------
 +
d------2------------2-2-2---------------------------------------------------------
 +
a------2----2---2---3-3-3--------------------------------------------------------- x2
 +
e-----------0---0---0-0-0---------------------------------------------------------
 +
 +
e---------------------------------------------------------------------------------
 +
b---------------------------------------------------------------------------------
 +
g---------------------------------------------------------------------------------
 +
d--2-3--3--3--3--3-3--2-3--3b--3b--3b--3b--3-3------------------------------------
 +
a---------------------------------------------------------------------------------
 +
e---------------------------------------------------------------------------------
 +
 +
e---------------------------------------------------------------------------------
 +
b---------------------------------------------------------------------------------
 +
g--4------------------------------------------------------------------------------
 +
d------2------------2-2-2---------------------------------------------------------
 +
a------2----2---2---3-3-3--------------------------------------------------------- x4
 +
e-----------0---0---0-0-0---------------------------------------------------------
 +
 +
e---------------------------------------------------------------------------------
 +
b---------------------------------------------------------------------------------
 +
g---------------------------------------------------------------------------------
 +
d--4--4-----4---------------------------------------------------------------------
 +
a--2--2--3--2---3-3/5-5-5-5------------------------------------------------------- x4
 +
e--0--0--0--0---------------------------------------------------------------------
 +
Verse
 +
 +
e---------------------------------------------------------------------------------
 +
b---------------------------------------------------------------------------------
 +
g---------------------------------------------------------------------------------
 +
d--3---3--3--3-3--3---3-----3---3--3--3-3-----------------------------------------
 +
a--3---3--3--3-3--3---3-----3---3--3--3-3-----------------------------------------
 +
e--1---1--1--1-1--1---1--0--1---1--1--1-1-----------------------------------------
 +
 +
e---------------------------------------------------------------------------------
 +
b---------------------------------------------------------------------------------
 +
g---------------------------------------------------------------------------------
 +
d------------2--2--2-2-2----------------------------------------------------------
 +
a-------7\---2--2--3-3-3---------------------------------------------------------- x2
 +
e--2/7-------0--0--0-0-0----------------------------------------------------------
 +
 +
Verse
 +
e---------------------------------------------------------------------------------
 +
b---------------------------------------------------------------------------------
 +
g---------------------------------------------------------------------------------
 +
d--3---3--3--3-3--3---3-----3---3--3--3-3-----------------------------------------
 +
a--3---3--3--3-3--3---3-----3---3--3--3-3-----------------------------------------
 +
e--1---1--1--1-1--1---1--0--1---1--1--1-1-----------------------------------------
 +
 +
e---------------------------------------------------------------------------------
 +
b---------------------------------------------------------------------------------
 +
g---------------------------------------------------------------------------------
 +
d------------2--2--2-2-2----------------------------------------------------------
 +
a-------7\---2--2--3-3-3---------------------------------------------------------- x2
 +
e--2/7-------0--0--0-0-0----------------------------------------------------------
 +
 +
Verse x2
 +
 +
e---------------------------------------------------------------------------------
 +
b---------------------------------------------------------------------------------
 +
g---------------------------------------------------------------------------------
 +
d--5--5--5-5-5/7-7--7/9-9---------------------------------------------------------
 +
a--5--5--5-5-5/7-7--7/9-9---------------------------------------------------------
 +
e--3--3--3-3-3/5-5--5/7-7---------------------------------------------------------
 +
 +
Outro
 +
e---------------------------------------------------------------------------------
 +
b---------------------------------------------------------------------------------
 +
g---------------------------------------------------------------------------------
 +
d--4--4----4-4-4-4--4--4----4-4-4-4--4--4----4-4-4-4--4--4----4-4-4-4-------------
 +
a--2--2----2-2-2-2--2--2----2-2-2-2--2--2----2-2-2-2--2--2----2-2-2-2-------------
 +
e--0--0----3-3-3-3--0--0----3-3-3-3--0--0----3-3-3-3--0--0----3-3-3-3-------------
 +
play a couple of times
 +
 +
End
 +
e---------------------------------------------------------------------------------
 +
b---------------------------------------------------------------------------------
 +
g---------------------------------------------------------------------------------
 +
d--4---4----4----------4----------------------------------------------------------
 +
a--2---2----2---------------2-----------------------------------------------------
 +
e--0---2----3---------------------3-----------------------------------------------
 +
 
 +
[[Category: Lyrics]]
 +
[[Category: Tablature]]

Revision as of 18:15, 16 January 2008

"Respite" (Crover) – 4:16

Originally appeared on the Dale Crover EP, 1992.

Lyrics

You almost scared me today

You almost scared me

It's a real stain on my sleeve

It's a real drag

Don't try to sound negative

I don't need to try

Fashion something that I always want

Tell me it's another day

I never wanted to

I never wanted you


Guitar Tab

Intro
e---------------------------------------------------------------------------------
b---------------------------------------------------------------------------------
g---------------------------------------------------------------------------------
d--3--3--3--3--3-3--2-3--3--3--3--3--3-3------------------------------------------
a---------------------------------------------------------------------------------
e---------------------------------------------------------------------------------

e---------------------------------------------------------------------------------
b---------------------------------------------------------------------------------
g--4------------------------------------------------------------------------------
d------2------------2-2-2---------------------------------------------------------
a------2----2---2---3-3-3--------------------------------------------------------- x2
e-----------0---0---0-0-0---------------------------------------------------------

drums fade in...
e---------------------------------------------------------------------------------
b---------------------------------------------------------------------------------
g---------------------------------------------------------------------------------
d--2-3--3--3--3--3-3--2-3--3--3--3--3--3-3----------------------------------------
a---------------------------------------------------------------------------------
e---------------------------------------------------------------------------------

e---------------------------------------------------------------------------------
b---------------------------------------------------------------------------------
g--4------------------------------------------------------------------------------
d------2------------2-2-2---------------------------------------------------------
a------2----2---2---3-3-3--------------------------------------------------------- x2
e-----------0---0---0-0-0---------------------------------------------------------

e---------------------------------------------------------------------------------
b---------------------------------------------------------------------------------
g---------------------------------------------------------------------------------
d--2-3--3--3--3--3-3--2-3--3b--3b--3b--3b--3-3------------------------------------
a---------------------------------------------------------------------------------
e---------------------------------------------------------------------------------

e---------------------------------------------------------------------------------
b---------------------------------------------------------------------------------
g--4------------------------------------------------------------------------------
d------2------------2-2-2---------------------------------------------------------
a------2----2---2---3-3-3--------------------------------------------------------- x4
e-----------0---0---0-0-0---------------------------------------------------------

e---------------------------------------------------------------------------------
b---------------------------------------------------------------------------------
g---------------------------------------------------------------------------------
d--4--4-----4---------------------------------------------------------------------
a--2--2--3--2---3-3/5-5-5-5------------------------------------------------------- x4
e--0--0--0--0---------------------------------------------------------------------
Verse

e---------------------------------------------------------------------------------
b---------------------------------------------------------------------------------
g---------------------------------------------------------------------------------
d--3---3--3--3-3--3---3-----3---3--3--3-3-----------------------------------------
a--3---3--3--3-3--3---3-----3---3--3--3-3-----------------------------------------
e--1---1--1--1-1--1---1--0--1---1--1--1-1-----------------------------------------

e---------------------------------------------------------------------------------
b---------------------------------------------------------------------------------
g---------------------------------------------------------------------------------
d------------2--2--2-2-2----------------------------------------------------------
a-------7\---2--2--3-3-3---------------------------------------------------------- x2
e--2/7-------0--0--0-0-0----------------------------------------------------------

Verse
e---------------------------------------------------------------------------------
b---------------------------------------------------------------------------------
g---------------------------------------------------------------------------------
d--3---3--3--3-3--3---3-----3---3--3--3-3-----------------------------------------
a--3---3--3--3-3--3---3-----3---3--3--3-3-----------------------------------------
e--1---1--1--1-1--1---1--0--1---1--1--1-1-----------------------------------------

e---------------------------------------------------------------------------------
b---------------------------------------------------------------------------------
g---------------------------------------------------------------------------------
d------------2--2--2-2-2----------------------------------------------------------
a-------7\---2--2--3-3-3---------------------------------------------------------- x2
e--2/7-------0--0--0-0-0----------------------------------------------------------

Verse x2

e---------------------------------------------------------------------------------
b---------------------------------------------------------------------------------
g---------------------------------------------------------------------------------
d--5--5--5-5-5/7-7--7/9-9---------------------------------------------------------
a--5--5--5-5-5/7-7--7/9-9---------------------------------------------------------
e--3--3--3-3-3/5-5--5/7-7---------------------------------------------------------

Outro
e---------------------------------------------------------------------------------
b---------------------------------------------------------------------------------
g---------------------------------------------------------------------------------
d--4--4----4-4-4-4--4--4----4-4-4-4--4--4----4-4-4-4--4--4----4-4-4-4-------------
a--2--2----2-2-2-2--2--2----2-2-2-2--2--2----2-2-2-2--2--2----2-2-2-2-------------
e--0--0----3-3-3-3--0--0----3-3-3-3--0--0----3-3-3-3--0--0----3-3-3-3-------------
play a couple of times

End
e---------------------------------------------------------------------------------
b---------------------------------------------------------------------------------
g---------------------------------------------------------------------------------
d--4---4----4----------4----------------------------------------------------------
a--2---2----2---------------2-----------------------------------------------------
e--0---2----3---------------------3-----------------------------------------------