Difference between revisions of "Suicide In Progress"

From MelvinsWiki
Jump to navigation Jump to search
Line 1: Line 1:
 +
==Guitar Tab==
 +
 +
Intro
 +
e---------------------------------------------------------------------------------
 +
b---------------------------------------------------------------------------------
 +
g--2--2--2--2-2-2----------------2--2--2--2-2-2-----------------------------------
 +
d--2--2--2--2-2-2----------------2--2--2--2-2-2-----------------------------------
 +
a--0--0--0--0-0-0---3p0--0-------0--0--0--0-0-0---3p0--0---------0----------------
 +
e---------------------------3b-----------------------------3b---------3b----------
 +
 +
e---------------------------------------------------------------------------------
 +
b---------------------------------------------------------------------------------
 +
g--2--2--2--2-2-2-----------------------------------------------------------------
 +
d--2--2--2--2-2-2-----------------------------------------------------------------
 +
a--0--0--0--0-0-0---3p0--0--------0---------0-------------------------------------
 +
e---------------------------3b--------3b--------3b--------------------------------
 +
 +
Riff 1
 +
e---------------------------------------------------------------------------------
 +
b---------------------------------------------------------------------------------
 +
g---------------------------------------------------------------------------------
 +
d---------------------------------------------------------------------------------
 +
a--2-2------2-2----4p2--2-5p2--2-4p2------2-2----4p2--2-5p2--2-4p2----------------
 +
e--0-0--3b--0-0-----------------------3b--0-0------------------------3--0--3--0---
 +
    . .                                                              .  .  .  .
 +
                                                                                  }x5
 +
e---------------------------------------------------------------------------------
 +
b---------------------------------------------------------------------------------
 +
g---------------------------------------------------------------------------------
 +
d---------------------------------------------------------------------------------
 +
a--4p2--2-5p2-2--4-2-----2--4-----------------------------------------------------
 +
e---------------------3-----------------------------------------------------------                                                                                                                                                                                                             
 +
                                                                                                                               
 +
Short Break
 +
e---------------------------------------------------------------------------------
 +
b---------------------------------------------------------------------------------
 +
g--9-9-9-9--9-9-9-9--9-9-9-9--9-9-9-9--9-9-9-9--9-9-9-9--9-9-9-9------------------
 +
d--9-9-9-9--9-9-9-9--9-9-9-9--9-9-9-9--9-9-9-9--9-9-9-9--9-9-9-9------------------
 +
a--7-7-7-7--7-7-7-7--7-7-7-7--7-7-7-7--7-7-7-7--7-7-7-7--7-7-7-7------------------
 +
e---------------------------------------------------------------------------------
 +
Riff 1
 +
e---------------------------------------------------------------------------------
 +
b---------------------------------------------------------------------------------
 +
g---------------------------------------------------------------------------------
 +
d---------------------------------------------------------------------------------
 +
a--2-2------2-2----4p2--2-5p2--2-4p2------2-2----4p2--2-5p2--2-4p2----------------
 +
e--0-0--3b--0-0-----------------------3b--0-0------------------------3--0--3--0---
 +
    . .            |repeat twice from here                            .  .  .  .
 +
 +
e---------------------------------------------------------------------------------
 +
b---------------------------------------------------------------------------------
 +
g---------------------------------------------------------------------------------
 +
d---------------------------------------------------------------------------------
 +
a--4p2--2-5p2-2--4-2-----2--4-----------------------------------------------------  x1
 +
e---------------------3-----------------------------------------------------------
 +
 +
Riff 2
 +
e---------------------------------------------------------------------------------
 +
b---------------------------------------------------------------------------------
 +
g---------------------------------------------------------------------------------
 +
d---------------------2-----------------------------------------------------------
 +
a--2--2-2-------------2----7-7-7-7-7-7--------------------------------------------  x3
 +
e--0--0-0---3----5-6--0-----------------6-----3-5-6--5h6p5--3h5p3-----------------
 +
 +
e---------------------------------------------------------------------------------
 +
b---------------------------------------------------------------------------------
 +
g---------------------------------------------------------------------------------
 +
d---------------7---2-------------------------------------------------------------
 +
a---------------7---2-------------------------------------------------------------
 +
e--0--0-0--3----5---0-------------------------------------------------------------
 +
 +
Second Part
 +
e---------------------------------------------------------------------------------
 +
b---------------------------------------------------------------------------------
 +
g--2-2--2--2---2-2---------------2-2--2--2---2-2----------------------------------
 +
d--2-2--4--2---2-2---------------2-2--4--2---2-2----------------------------------
 +
a--0-0--0--0---0-0--3p0-0--------0-0--0--0---0-0--3p0-0-------0-------------------
 +
e--------------------------3b----------------------------3b-------3b--------------
 +
                . .                          . .
 +
 +
e---------------------------------------------------------------------------------
 +
b---------------------------------------------------------------------------------
 +
g--2-2--2--2---2-2----------------------------------------------------------------
 +
d--2-2--4--2---2-2----------------------------------------------------------------
 +
a--0-0--0--0---0-0--3p0-0-------0--------0----------------------------------------
 +
e--------------------------3b-------3b--------3b----------------------------------
 +
                . .
 +
Verse
 +
e---------------------------------------------------------------------------------
 +
b---------------------------------------------------------------------------------
 +
g---------------------------------------------------------------------------------
 +
d---------------------------------------------------------------------------------
 +
a--2--2-2--5---5/7--7-7--8--2---8-8-8-8-8--5---5/7--7-7--2--2-2------------------- x5
 +
e--0--0-0--3---3/5--5-5--6--0---6-6-6-6-6--3---3/5--5-5--0--0-0---0-0-0-0-3b------
 +
PM
 +
 +
Riff 3
 +
e---------------------------------------------------------------------------------
 +
b---------------------------------------------------------------------------------
 +
g--9-9-9-9-9--9----7-----4/5-5-5-5--5----2-2--4-----------------------------------
 +
d--9-9-9-9-9--9----7-----4/5-5-5-5--5----2-2--4-----------------------------------
 +
a--7-7-7-7-7--7----5--0--2/3-3-3-3--3----0-0--2-----------------------------------
 +
e---------------------------------------------------------------------------------
 +
 +
Verse  x2
 +
 +
Riff 3 x2
 +
 +
End on E
 +
 
[[Category: Tablature]]
 
[[Category: Tablature]]

Revision as of 19:57, 12 January 2008

Guitar Tab

Intro

e---------------------------------------------------------------------------------
b---------------------------------------------------------------------------------
g--2--2--2--2-2-2----------------2--2--2--2-2-2-----------------------------------
d--2--2--2--2-2-2----------------2--2--2--2-2-2-----------------------------------
a--0--0--0--0-0-0---3p0--0-------0--0--0--0-0-0---3p0--0---------0----------------
e---------------------------3b-----------------------------3b---------3b----------
e---------------------------------------------------------------------------------
b---------------------------------------------------------------------------------
g--2--2--2--2-2-2-----------------------------------------------------------------
d--2--2--2--2-2-2-----------------------------------------------------------------
a--0--0--0--0-0-0---3p0--0--------0---------0-------------------------------------
e---------------------------3b--------3b--------3b--------------------------------

Riff 1

e---------------------------------------------------------------------------------
b---------------------------------------------------------------------------------
g---------------------------------------------------------------------------------
d---------------------------------------------------------------------------------
a--2-2------2-2----4p2--2-5p2--2-4p2------2-2----4p2--2-5p2--2-4p2----------------
e--0-0--3b--0-0-----------------------3b--0-0------------------------3--0--3--0---
   . .                                                               .  .  .  .
                                                                                  }x5
e---------------------------------------------------------------------------------
b---------------------------------------------------------------------------------
g---------------------------------------------------------------------------------
d---------------------------------------------------------------------------------
a--4p2--2-5p2-2--4-2-----2--4-----------------------------------------------------
e---------------------3-----------------------------------------------------------                                                                                                                                                                                                              
                                                                                                                                

Short Break

e---------------------------------------------------------------------------------
b---------------------------------------------------------------------------------
g--9-9-9-9--9-9-9-9--9-9-9-9--9-9-9-9--9-9-9-9--9-9-9-9--9-9-9-9------------------
d--9-9-9-9--9-9-9-9--9-9-9-9--9-9-9-9--9-9-9-9--9-9-9-9--9-9-9-9------------------
a--7-7-7-7--7-7-7-7--7-7-7-7--7-7-7-7--7-7-7-7--7-7-7-7--7-7-7-7------------------
e---------------------------------------------------------------------------------

Riff 1

e---------------------------------------------------------------------------------
b---------------------------------------------------------------------------------
g---------------------------------------------------------------------------------
d---------------------------------------------------------------------------------
a--2-2------2-2----4p2--2-5p2--2-4p2------2-2----4p2--2-5p2--2-4p2---------------- 
e--0-0--3b--0-0-----------------------3b--0-0------------------------3--0--3--0---
   . .            |repeat twice from here                            .  .  .  .
e---------------------------------------------------------------------------------
b---------------------------------------------------------------------------------
g---------------------------------------------------------------------------------
d---------------------------------------------------------------------------------
a--4p2--2-5p2-2--4-2-----2--4-----------------------------------------------------  x1
e---------------------3-----------------------------------------------------------

Riff 2

e---------------------------------------------------------------------------------
b---------------------------------------------------------------------------------
g---------------------------------------------------------------------------------
d---------------------2-----------------------------------------------------------
a--2--2-2-------------2----7-7-7-7-7-7--------------------------------------------  x3
e--0--0-0---3----5-6--0-----------------6-----3-5-6--5h6p5--3h5p3-----------------
e---------------------------------------------------------------------------------
b---------------------------------------------------------------------------------
g---------------------------------------------------------------------------------
d---------------7---2-------------------------------------------------------------
a---------------7---2-------------------------------------------------------------
e--0--0-0--3----5---0-------------------------------------------------------------

Second Part

e---------------------------------------------------------------------------------
b---------------------------------------------------------------------------------
g--2-2--2--2---2-2---------------2-2--2--2---2-2----------------------------------
d--2-2--4--2---2-2---------------2-2--4--2---2-2----------------------------------
a--0-0--0--0---0-0--3p0-0--------0-0--0--0---0-0--3p0-0-------0-------------------
e--------------------------3b----------------------------3b-------3b--------------
               . .                           . .
e---------------------------------------------------------------------------------
b---------------------------------------------------------------------------------
g--2-2--2--2---2-2----------------------------------------------------------------
d--2-2--4--2---2-2----------------------------------------------------------------
a--0-0--0--0---0-0--3p0-0-------0--------0----------------------------------------
e--------------------------3b-------3b--------3b----------------------------------
               . .

Verse

e---------------------------------------------------------------------------------
b---------------------------------------------------------------------------------
g---------------------------------------------------------------------------------
d---------------------------------------------------------------------------------
a--2--2-2--5---5/7--7-7--8--2---8-8-8-8-8--5---5/7--7-7--2--2-2------------------- x5 
e--0--0-0--3---3/5--5-5--6--0---6-6-6-6-6--3---3/5--5-5--0--0-0---0-0-0-0-3b------

PM

Riff 3

e---------------------------------------------------------------------------------
b---------------------------------------------------------------------------------
g--9-9-9-9-9--9----7-----4/5-5-5-5--5----2-2--4-----------------------------------
d--9-9-9-9-9--9----7-----4/5-5-5-5--5----2-2--4-----------------------------------
a--7-7-7-7-7--7----5--0--2/3-3-3-3--3----0-0--2-----------------------------------
e---------------------------------------------------------------------------------

Verse x2

Riff 3 x2

End on E