Difference between revisions of "The Brain Center At Whipples"

From MelvinsWiki
Jump to navigation Jump to search
m
Line 19: Line 19:
  
  
Is it my woman?<br>
+
Is it my mormon?<br>
 
Is it my head?<br>
 
Is it my head?<br>
 
I hide up with my motor<br>
 
I hide up with my motor<br>
And hide up with my hot goal
+
And hide up with my hot gun
  
 
== Guitar Tab ==
 
== Guitar Tab ==

Revision as of 02:40, 20 May 2008

"The Brain Center At Whipples" (Osborne) – 3:50

Released as a single and on Hostile Ambient Takeover, 2002.

Lyrics

Where is my fortune?
It's in my forced reaction
Doesn't one hand help me read now?
Doesn't one hand help the other one?
Put down the wild
Cooking like the face of banality
I've got it in my brain now
I've got it in my center


What are you talking about?
You started loud
So am I


Is it my mormon?
Is it my head?
I hide up with my motor
And hide up with my hot gun

Guitar Tab

==ben.nield@gmail.com==

Riff 1: (play 3X)

  1   +   2   +   3   +   4   +     1   +   2   +   3   +   4   +
b---------------------------------|---------------------------------|
g---------------------------------|---------------------------------|
d---------------------------------|---------------------------------|
a---------7-----------------------|---------------------------------|
e-0---0---------0-0-0-3-0-0-5-0-0-|-6---0-0-1-0-0---0-0-1h0-3h0-3h0-|


  1   +   2   +   3   +   4   +     1   +   2   +   3   +   4   +
b---------------------------------|---------------------------------|
g---------9-----9-----------------|---------9-----9-----------------|
d---------9-----9-----------------|---------7-----7-----------------|
a---------7-----7-----------------|---------7-----7-----------------|
e-0---0-----------0-0-0-3-0-0-5-0-|-----0-----------0-0-0-3-0-0-5-0-|

Play this twice:

  1   +   2   +   3   +   4   +     1   +   2   +   3   +   4   +
b---------------------------------|---------------------------------|
g---------------------------------|---------------------------------|
d---------------------------------|---------------------------------|
a-7-7-7-7-7-7-7-7-7-7-7-7-7-7-7-7-|-7-7-7-7-7-7-7-7-7-7-7-7-7-7-7-7-|
e---------------------------------|---------------------------------|

Riff 2: (X2)

  1   +   2   +   3   +   4   +     1   +   2   +   3   +   4   +
b---------------------------------|---------------------------------|
g-9--9--9-----9-------------------|-7--7--7-----7-------------------|
d-9--9--9-----9-------------------|-7--7--7-----7-------------------|
a-7--7--7-----7-------------------|-5--5--5-----5-------------------|
e---------------------------------|---------------------------------|

  1   +   2   +   3   +   4   +     1   +   2   +   3   +   4   +
b---------------------------------|---------------------------------|
g---------------------------------|-----------------------------5---|
d---------------------------------|-----------------------------5---|
a-------------------3-----5---3---|-5-----6-----7-----5---7p5h7-----|
e-3----4------5-------------------|---------------------------------|

Verse: (X8)

  1   +   2   +   3   +   4   +     1   +   2   +   3   +   4   +
b---------------------------------|---------------------------------|
g---------------------------------|---------------------------------|
d---------------------------------|---------------------------------|
a-7---7-7-7-7---7-7-7-7-7-7-7-7-7-|-7---7-7-7-7---7-7-7-7-7-7-7-7-7-|
e---------------------------------|---------------------------------|

Then strum this 3X:

  1   +   2   +   3   +   4   +
b---------------------------------|
g-9--9--9-------------------------|
d-9--9--9-------------------------|
a-7--7--7-------------------------|
e---------------------------------|

Then back to Verse 2X
Back to Riff 2 (3X)

Then this X3:

b---------------------------------|
g---------------------------------|
d---------5-----------------------|
a-7p5h7p5-5-----------------------|
e---------------------------------|

Then:

  1   +   2   +   3   +   4   +     1   +   2   +   3   +   4   +
b---------------------------------|---------------------------------
g---------------------------------|---------------------------------
d-2-----------5-------------------|---------------------------------
a-2-----------5-------------------|---------------------------------
e-0-----------3-------------------|---------------------------------

  1   +   2   +   3   +   4   +     1   +   2   +   3   +   4   +
b---------------------------------|---------------------------------|
g-9-----------12------------------|---------------------------------|
d-9-----------12------------------|---------------------------------|
a-7-----------10------------------|---------------------------------|
e---------------------------------|---------------------------------|

Solo a:

  1   +   2   +   3   +   4   +     1   +   2   +   3   +   4   +
b---------------------------------|---------------------------------|
g-12b-----------------------------|-12------------------------------|
d-------------10~~~~~~~~~~~~~~~~--|-----11------11-11-11b12-11b12---|
a---------------------------------|---------------------------------|
e---------------------------------|---------------------------------|

  1   +   2   +   3   +   4   +
b---------------------------------|
g-9-------------------------------|
d-9-------------------------------|
a-7-------------------------------|
e---------------------------------|

Fill a:

  1   +   2   +   3   +   4   +     1   +   2   +   3   +   4   +
b---------------------------------|---------------------------------|
g---------------------------------|---------------------------------|
d---------------------------------|---------------------------------|
a-------------------------5---7---|---------------------------------|
e-6-----5---------5---3-----------|-5---7---5---2---3-----2---------|

  1   +   2   +   3   +   4   +     1   +   2   +   3   +   4   +
b---------------------------------|---------------------------------|
g---------------------------------|---------------------------------|
d---------------------------------|---------------------------------|
a---------3---------------5-------|-5---3---5-------3---------------|
e-3---2-----------5---3-----------|---------------------0-0-0-0-0-0-|

Solo b:

  1   +   2   +   3   +   4   +     1   +   2   +   3   +   4   +
b---------------------------------|---------------------------------|
g---------------------------------|---------------------------------|
d-------------9~~~~~~~~~~~~~~~~~~-|-~~~~~~~~~~~~~~~~~~~~~---8-------|
a-7-------------------------------|---------------------------------|
e---------------------------------|---------------------------------|

  1   +   2   +   3   +   4   +     1   +   2   +   3   +   4   +
b---------------------------------|---------------------------------|
g---------------------------------|---------------------------------|
d-------------11~~~~~~~~~~~~~~~~~-|-(11)~~~~~~~~~~~~~~~~~~~~~~~~~~~-|
a-12------------------------------|---------------------------------|
e---------------------------------|---------------------------------|

  1   +   2   +   3   +   4   +     1   +   2   +   3   +   4   +
b---------------------------------|---------------------------------
g-12------------------11----------|-12------------------9-----------
d-12------------------11----------|-12------------------9-----------
a-10------------------9-----------|-10------------------7-----------
e---------------------------------|---------------------------------

  1   +   2   +   3   +   4   +     1   +   2   +   3   +   4   +
b---------------------------------|---------------------------------|
g-12------------------11----------|-12------------------------------|
d-12------------------11----------|-12------------------------------|
a-10------------------9-----------|-10------------------------------|
e---------------------------------|---------------------------------|

Fill b:

  1   +   2   +   3   +   4   +
b---------------------------------|
g---------------------------------|
d---------------------------------|
a-------------------------5-------|
e-6-----5---------5---3-----------|

Solo c:

  1   +   2   +   3   +   4   +     1   +   2   +   3   +   4   +
b---------------------------------|---------------------------------
g---------------------------------|---------------------------------
d-----8---7-------7-------7---7b8-|-7---9---9b8-----7-------7---7---
a-7-----------9-------7-----------|-------------9-------7----h9-----
e---------------------------------|---------------------------------

  1   +   2   +   3   +   4   +     1   +   2   +   3   +   4   +
b---------------------------------|---------------------------------
g-9---8---7-------7-------7---8---|-9-------------------------------
d-------------9-------9-----------|---------------------------------
a---------------------------------|---------------------------------
e---------------------------------|---------------------------------

  1   +   2   +   3   +   4   +     1   +   2   +   3   +   4   +
b---------------------------------|---------------------------------
g-11--10--9-------9-------9---10--|-9---8---7-------7-------7-------
d-------------11------11----------|-------------9-------9-------9---
a---------------------------------|---------------------------------
e---------------------------------|---------------------------------

  1   +   2   +   3   +   4   +     1   +   2   +   3   +   4   +
b---------------------------------|---------------------------------|
g-7---9---7-------7---------------|---------9~~~~~~~~~~~~~~~~~~~~~--|
d-------------9-------9---8---7---|---------9~~~~~~~~~~~~~~~~~~~~~--|
a---------------------------------|-9---8---7~~~~~~~~~~~~~~~~~~~~~--|
e---------------------------------|---------------------------------|

  1   +   2   +   3   +   4   +
b---------------------------------|
g(9)~~~~~~~~~~~~~~~~~~~~~~~~~~~~~-|
d(9)~~~~~~~~~~~~~~~~~~~~~~~~~~~~~-|
a(7)~~~~~~~~~~~~~~~~~~~~~~~~~~~~~-|
e---------------------------------|

Riff 3: (2X)

  1   +   2   +   3   +   4   +     1   +   2   +   3   +   4   +
b---------------------------------|---------------------------------
g-9-----------9-----------9-------|-5-----5-----5-------------------
d-9-----------9-----------9-------|-5h7--h7----h7-------------------
a-7-----------7-----------7-------|-5-----5-----5-------------------
e---------------------------------|---------------------------------

  1   +   2   +   3   +   4   +     1   +   2   +   3   +   4   +
b---------------------------------|---------------------------------|
g---------------------------------|---------------------------------|
d---------------------------------|-----------------9---------------|
a-5h7-7-6-----5---7---------------|-5h7-7-6-----5-----------9-------|
e---------------------------------|---------------------------------|

Outro (12X) - Gradually builds speed:

  1   +   2   +   3   +   4   +     1   +   2   +   3   +   4   +
b---------------------------------|---------------------------------|
g---------9-----------------------|---------------------------------|
d---------9-----------------------|---------------------------------|
a---------7-----------------------|---------------------------------|
e-0---0---------0-0-0-3-0-0-5-0-0-|-6---0-0-1-0-0---0-0-1h0-3h0-3h0-|

End on this:

  1   +   2   +   3   +   4   +
b---------------------------------|
g---------9-----------------------|
d---------9-----------------------|
a---------7-----------------------|
e-0---0---------------------------|