Difference between revisions of "The Kicking Machine"

From MelvinsWiki
Jump to navigation Jump to search
Line 33: Line 33:
 
   
 
   
 
Riff 1  - play 2x to begin with
 
Riff 1  - play 2x to begin with
     '''1'''       2      3      4      
+
    1      2      3      4        1  +  2  +  3  +  4  +     1      2      3      4    
  E|---------------------------------
+
  E||---------------------------------|---------------------------------|------------------------------|
  B|---------------------------------
+
  B||---------------------------------|---------------------------------|------------------------------|
  G|-9-------------------------------
+
  G||-9-------------------------------|---------------------------------|------------------------------|
  D|-9-------------------------------
+
  D||-9-------------------------------|-7-6-7-6-7-6-----------5/4-------|------------------------------|
  A|-7-------------------------------
+
  A||-7-------------------------------|-------------7-------7-----5-7-5-|-7----------------------------|
  E|-0-------------------------------
+
  E||-0-------------------------------|---------------------------------|------------------------------|
  
     '''1'''   +  2  +  3  +  4  +   '''1'''       2      3      4  
+
     1       2      3      4        1   +  2  +  3  +  4  +     1      2      3      4        1      2      3      4  
  E|-------------------------------------------------------------|
+
  E|---------------------------------|---------------------------------|---------------------------------|------------------------------|
  B|-------------------------------------------------------------|
+
  B|---------------------------------|---------------------------------|---------------------------------|------------------------------|
  G|-------------------------------------------------------------|
+
  G|-9-------------------------------|---------------------------------|---------------------------------|------------------------------|
  D|-7-6-7-6-7-6-----------5/4-----------------------------------|
+
  D|-9-------------------------------|-7-6-7-6-7-6-----------5/4-------|---------------------------------|------------------------------|
  A|-------------7-------7-----5-7-5-7---------------------------|
+
  A|-7-------------------------------|-------------7-------7-----5-7-5-|-7-------------------------------|------------------------------|
  E|-------------------------------------------------------------|
+
  E|-0-------------------------------|---------------------------------|---------------------------------|------------------------------|
  
     '''1'''       2      3      4      
+
     1      2      3      4         1  +  2  +  3  +  4  +     1      2      3      4   + 
E|---------------------------------
+
  E|---------------------------------|---------------------------------|---------------------------------||
B|---------------------------------
+
  B|---------------------------------|---------------------------------|---------------------------------||
G|-9-------------------------------
+
  G|-9-------------------------------|---------------------------------|-----------------------------9---||
D|-9-------------------------------
+
  D|-9-------------------------------|-7-6-7-6-7-6-----------5/4-------|-----------------------------9---||
A|-7-------------------------------
+
  A|-7-------------------------------|-------------7-------7-----5-7-5-|-7---------------------------7---||
E|-0-------------------------------
+
  E|-0-------------------------------|---------------------------------|-----------------------------0---||
 
 
    '''1'''   +  2  +  3  +  4  +   '''1'''       2      3      4       1      2      3      4     
 
  E|---------------------------------------------------------------------------------------------|
 
B|---------------------------------------------------------------------------------------------|
 
  G|---------------------------------------------------------------------------------------------|
 
D|-7-6-7-6-7-6-----------5/4-------------------------------------------------------------------|
 
  A|-------------7-------7-----5-7-5-7-----------------------------------------------------------|
 
E|---------------------------------------------------------------------------------------------|
 
 
 
    '''1'''      2      3      4     
 
E|---------------------------------
 
B|---------------------------------
 
G|-9-------------------------------
 
  D|-9-------------------------------
 
A|-7-------------------------------
 
E|-0-------------------------------
 
 
 
    '''1'''  +  2  +  3  +  4  +  '''1'''      2      3      4  '''+'''   
 
E|-----------------------------------------------------------------|
 
  B|-----------------------------------------------------------------|
 
G|-------------------------------------------------------------9---|
 
  D|-7-6-7-6-7-6-----------5\4-----------------------------------9---|
 
A|-------------7-------7-----5-7-5-7---------------------------7---|
 
E|-------------------------------------------------------------0---|  
 
  
  
Line 87: Line 63:
 
  G|-9-------9-------7-------10------7------
 
  G|-9-------9-------7-------10------7------
 
  D|-9-------9-------7-------10------7------
 
  D|-9-------9-------7-------10------7------
  A|-7-------7-------5--------8------5------
+
  A|-7-------7-------5--------8------5------ After this, play Riff 1 again 1x
 
  E|-0-------0------------------------------
 
  E|-0-------0------------------------------
 
Back to Main Riff 1x
 
  
  

Revision as of 07:21, 1 July 2009

"The Kicking Machine" - 2:44

Originally released on Nude With Boots, 2008.

Lyrics

Any more lazy,

He won't eat or speak

Rotten, raving, headless leech,

Little horned animal


They were bullet poisoned

Forgive everything

Rotten, raving, headless leech,

Animal is falling/faultless


Right hand pathetic/perverted

It's fair/He's fit to pulverize her down, for the many

My God, it's all in ending.

Guitar Tab

Riff 1 - play 2x to begin with

    1       2       3       4         1   +   2   +   3   +   4   +     1       2       3       4     
E||---------------------------------|---------------------------------|------------------------------|
B||---------------------------------|---------------------------------|------------------------------|
G||-9-------------------------------|---------------------------------|------------------------------|
D||-9-------------------------------|-7-6-7-6-7-6-----------5/4-------|------------------------------|
A||-7-------------------------------|-------------7-------7-----5-7-5-|-7----------------------------|
E||-0-------------------------------|---------------------------------|------------------------------|
   1       2       3       4         1   +   2   +   3   +   4   +     1       2       3       4         1       2       3       4    
E|---------------------------------|---------------------------------|---------------------------------|------------------------------|
B|---------------------------------|---------------------------------|---------------------------------|------------------------------|
G|-9-------------------------------|---------------------------------|---------------------------------|------------------------------|
D|-9-------------------------------|-7-6-7-6-7-6-----------5/4-------|---------------------------------|------------------------------|
A|-7-------------------------------|-------------7-------7-----5-7-5-|-7-------------------------------|------------------------------|
E|-0-------------------------------|---------------------------------|---------------------------------|------------------------------|
   1       2       3       4         1   +   2   +   3   +   4   +     1       2       3       4   +  
E|---------------------------------|---------------------------------|---------------------------------||
B|---------------------------------|---------------------------------|---------------------------------||
G|-9-------------------------------|---------------------------------|-----------------------------9---||
D|-9-------------------------------|-7-6-7-6-7-6-----------5/4-------|-----------------------------9---||
A|-7-------------------------------|-------------7-------7-----5-7-5-|-7---------------------------7---||
E|-0-------------------------------|---------------------------------|-----------------------------0---||


1st Fill

E|----------------------------------------
B|----------------------------------------
G|-9-------9-------7-------10------7------
D|-9-------9-------7-------10------7------
A|-7-------7-------5--------8------5------  After this, play Riff 1 again 1x
E|-0-------0------------------------------


Then 2nd Fill (continuing from last bar of Riff 1)

E-----------------------------------------------------------------
B-----------------------------------------------------------------
G-----------------------------------------------------------------
D---5\4---------5\4---------5\4-----------------------------------
A-7-----5-7-5-7-----5-7-5-7-----5-7-5-7-5-7-5-7-5-7-5-7-5-7-5-7-5-
E-----------------------------------------------------------------


Riff 2 - Play 4x

E-----------------------------------------------------------------                      
B-----------------------------------------------------------------
G-----------------------------------------------------------------
D-------------------4-4-4-----------------------------------------
A-------7-7-7-5-5-5-------5-5-4-4-----5-5-----4-4-5-5-----5-5-7-7-
E-0-0-0---------------------------0-0-----0-0---------0-0---------
[<Palm-Mute.....................................................>]


Bridge

Guitar 1:

  1       2       3       4       1       2       3       4   
E--------------------------------------------------------------
B--------------------------------------------------------------
G--------------------------------------------------------------
D-2-2-2-2-2-2-2-2-2-2-2-2-2-2-2-0-2----------------------------
A-0-0-0-0-0-0-0-0-0-0-0-0-0-0-0-0-2----------------------------
E---------------------------------0----------------------------

Guitar 2:

E-17-17-17-17-17-17-17-17-17-17-17-17-17-17-16------
B----------------------------------------------17---
G---------------------------------------------------
D---------------------------------------------------
A---------------------------------------------------
E---------------------------------------------------
Drum fill (Dale)

Guitar 1:

  1       2       1       2       3       4     
E-------------------------------------------------
B-------------------------------------------------
G-------------------------------------------------
D-2-2-2-2-2-2-2-0-2-------------------------------
A-0-0-0-0-0-0-0-0-2-------------------------------
E-----------------0-------------------------------

Guitar 2:

E-17-17-17-17-17-17-17-16------
B-------------------------17---
G------------------------------
D------------------------------
A------------------------------
E------------------------------
Drum fill (Coady)


Riff 3

E---------------------------------------------------------
B---------------------------------------------------------
G---------------------------------------------------------
D---------------------------------------------------------
A---------------------------------------------------------
E---------------------------------------------------------


Outro Riff

E---------------------------------------------------------
B---------------------------------------------------------
G-------------5-----------8---7---------------------------
D-7---8---5---5---8---7---8---7--7---8---9---8---9---10---
A-7---8---5---3---8---7---6---5--7---8---9---8---9---10---
E-5---6---3-------6---5----------5---6---7---6---7---8----